Comfortably Numb

by

Pink Floyd


from the album

The Wall

Cover art for The Wall by Pink Floyd featuring the song Comfortably Numb

Lead Guitar Tablature

Standard (E A D G B E) Tuning
e|---|---|---------------|---------------|---------------|--------|             
B|-4-|-7-|-12--12--12--0-|-14--14--14--0-|-12--12--12--0-|-12--12-|             
G|-4-|-7-|---------------|---------------|---------------|--------|             
D|---|---|---------------|---------------|---------------|--------|             
A|---|---|---------------|---------------|---------------|--------|             
E|---|---|---------------|---------------|---------------|--------|             

e|---------------|---------------|---------------|-------|---------------|      
B|-12--0--14--14-|-14--0--12--12-|-12--0--12--12-|-12--0-|-14--14--14--0-|      
G|---------------|---------------|---------------|-------|---------------|      
D|---------------|---------------|---------------|-------|---------------|      
A|---------------|---------------|---------------|-------|---------------|      
E|---------------|---------------|---------------|-------|---------------|      

e|---------------|---------------|--------|---------------|---------------|     
B|-12--12--12--0-|-12--12--12--0-|-14--14-|-14--0--12--12-|-12--0------10-|     
G|---------------|---------------|--------|---------------|--------11-----|     
D|---------------|---------------|--------|---------------|---------------|     
A|---------------|---------------|--------|---------------|---------------|     
E|---------------|---------------|--------|---------------|---------------|     

e|-10--14--X--14-||---|---|---|---|---|---|---|---|---|---|---|---|---|---|---| 
B|---------------||---|---|---|---|---|---|---|---|---|---|---|---|---|---|---| 
G|---------------||---|---|---|---|---|---|---|---|---|---|---|---|---|---|---| 
D|---------------||---|---|---|---|---|---|---|---|---|---|---|---|---|---|---| 
A|---------------||---|---|---|---|---|---|---|---|---|---|---|---|---|---|---| 
E|---------------||---|---|---|---|---|---|---|---|---|---|---|---|---|---|---| 

e|---|---|---|---------10-|-14--X--14-----|------------------------|            
B|---|---|---|-----10-----|------------15-|-15--14--14-------------|            
G|---|---|---|-11---------|---------------|-------------14---------|            
D|---|---|---|------------|---------------|-----------------14--12-|            
A|---|---|---|------------|---------------|------------------------|            
E|---|---|---|------------|---------------|------------------------|            

e|----------------10--14-|-----------------------------------|                  
B|-----0------10---------|-15--15--14------------------------|                  
G|--------11-------------|-------------14--------------------|                  
D|-12--------------------|-----------------14--12--11--9-----|                  
A|-----------------------|--------------------------------12-|                  
E|-----------------------|-----------------------------------|                  

e|-----------------------|--------------------------------|                     
B|-----------------------|--------------------------------|                     
G|-12--11----------11--9-|-9--7--7--9--7-----7--9--11--11-|                     
D|---------14--12--------|----------------9---------------|                     
A|-----------------------|--------------------------------|                     
E|-----------------------|--------------------------------|                     

e|----------14--15--14--12-------------|------------------------|---|           
B|-------X------------------15--12-----|------------------------|---|           
G|----X-----------------------------12-|------------------------|-9-|           
D|-X-----------------------------------|-12--10--9--9--10--9--7-|---|           
A|-------------------------------------|------------------------|---|           
E|-------------------------------------|------------------------|---|           

e|------------------|---|---|---|---|---|---|---|---|---|---|---|---|---|---|---|
B|------------------|---|---|---|---|---|---|---|---|---|---|---|---|---|---|---|
G|-9--9--7--7-------|---|---|---|---|---|---|---|---|---|---|---|---|---|---|---|
D|-------------9--7-|-7-|---|---|---|---|---|---|---|---|---|---|---|---|---|---|
A|------------------|---|---|---|---|---|---|---|---|---|---|---|---|---|---|---|
E|------------------|---|---|---|---|---|---|---|---|---|---|---|---|---|---|---|

e|---|---|---|---|---|---|---|---|---|---|---|---|---|------|---------------|   
B|---|---|---|---|---|---|---|---|---|---|---|---|---|------|---------------|   
G|---|---|---|---|---|---|---|---|---|---|---|---|---|-7--9-|-9--9--7-----7-|   
D|---|---|---|---|---|---|---|---|---|---|---|---|---|------|----------9----|   
A|---|---|---|---|---|---|---|---|---|---|---|---|---|------|---------------|   
E|---|---|---|---|---|---|---|---|---|---|---|---|---|------|---------------|   

e|-------------------------------|-----------------10-------|                   
B|--------------------10------10-|-12--12--10--12-----------|                   
G|-9--9--7-----7--11------11-----|---------------------7--9-|                   
D|----------9--------------------|--------------------------|                   
A|-------------------------------|--------------------------|                   
E|-------------------------------|--------------------------|                   

e|----------------------------|------------------|-------------7--9-|           
B|----------10--7-----7-------|------------------|----------7-------|           
G|-9--7------------9-----9--7-|----------------7-|------------------|           
D|-------9--------------------|-9-----7--7--9----|-9--7--9----------|           
A|----------------------------|----9-------------|------------------|           
E|----------------------------|------------------|------------------|           

e|-9--7------7-------------------|                                              
B|-------10-----10--12--10--7----|                                              
G|-----------------------------9-|                                              
D|-------------------------------|                                              
A|-------------------------------|                                              
E|-------------------------------|                                              

e|-------7--------------------------------------------------|                   
B|----7-----10--7-------------------------------------------|                   
G|-9---------------9--9--7-----9--7-------------------------|                   
D|--------------------------9--------9--7-------------------|                   
A|-----------------------------------------9--8--7--5-----5-|                   
E|-----------------------------------------------------7----|                   

e|-------------------7--------------------|                                     
B|----------------7-----10--7-------------|                                     
G|-7--7--7--X--9---------------9--9--7----|                                     
D|--------------------------------------9-|                                     
A|----------------------------------------|                                     
E|----------------------------------------|                                     

e|------------------------------------------------|                             
B|------------------------------------------------|                             
G|-9--7-------------------------------------------|                             
D|-------9--7-----------------------------7--7--7-|                             
A|-------------9--7--5--7--5-----5--7--9----------|                             
E|----------------------------7-------------------|                             

e|----------------------7--------------------|                                  
B|-------------------7-----10-----7----------|                                  
G|-------7-----7--9------------9-----7--9--0-|                                  
D|-9--7-----9--------------------------------|                                  
A|-------------------------------------------|                                  
E|-------------------------------------------|                                  

e|-------7--------------------------------------------------------|------------|
B|----7-----10--7-----------------------------------------------7-|----------7-|
G|-9---------------9--9--7-----9--7-----------------------------7-|----7--7--7-|
D|--------------------------9--------9--7-----------------------7-|-9--9--7--7-|
A|-----------------------------------------9--8--7--5-----5--0----|------------|
E|-----------------------------------------------------7----------|------------|

e|-------------------------------|----------7------7-----|                      
B|-----X--7--7-----7-------------|-------------10--7--10-|                      
G|-----X--7--7-----7-----9--7----|-7--9--9---------------|                      
D|-21--X--7--7--9-----X--------9-|-----------------------|                      
A|-------------------------------|-----------------------|                      
E|-------------------------------|-----------------------|                      

e|-------7--------------------------------------------------------------|       
B|----7-----10--7-------------------------------------------------------|       
G|-9---------------9--9--7--9--7-----7----------------------------------|       
D|--------------------------------9-----9--7--9--7-----7----------------|       
A|--------------------------------------------------9-----9--8--7--5----|       
E|--------------------------------------------------------------------7-|       

e|---------------------------|---------------------------------------|          
B|-------------------7-----7-|----------------------------7----------|          
G|----7--------------7--X--7-|-------7--9--0--9--9--7-----7----------|          
D|-9--7--9--9--9--9--7--X--7-|-7--9--------------------9-----9--7----|          
A|---------------------------|-------------------------------------9-|          
E|---------------------------|---------------------------------------|          

e|---------------------------------------------------|                          
B|-------------7-----------------------7-------------|                          
G|----9--7-----7-----------------------7--9--7--9--X-|                          
D|-7--9--7--9-----9--7-----7--9--7-------------------|                          
A|----------------------9-----------9----------------|                          
E|---------------------------------------------------|                          

e|-------------------------------------7--7--7--------|-----19--21--21--21--21-|
B|----7-----7-----7--X-----7--X--7--7--7--7--7--10--0-|-22---------------------|
G|----7--X--7--X--7--X-----7--X--7--7--7--7--7--------|------------------------|
D|----7--X-----X--------9--------------7--7--7--------|------------------------|
A|-9--------------------------------------------------|------------------------|
E|----------------------------------------------------|------------------------|

e|-21--22--21--19--21--19----------------|----------------------------|         
B|-------------------------X--17--17--17-|-17--17--15------17--15--17-|         
G|---------------------------------------|-------------16-------------|         
D|---------------------------------------|----------------------------|         
A|---------------------------------------|----------------------------|         
E|---------------------------------------|----------------------------|         

e|------------------------------------|                                         
B|-17--15-----------------------------|                                         
G|---------16--16--14--16-------------|                                         
D|-------------------------14--12-----|                                         
A|---------------------------------14-|                                         
E|------------------------------------|                                         

e|-----------------------------------------0-----|                              
B|-----15------15------17--17--15--17---------12-|                              
G|-16------16------16------------------16--------|                              
D|-----------------------------------------------|                              
A|-----------------------------------------------|                              
E|-----------------------------------------------|                              

e|--------------------------------------------------------|                     
B|-12--10--------------------------------------------7--7-|                     
G|---------9--0--9--7-----7--9--7-----------------X--7--7-|                     
D|---------------------9-----------9--7-----------X-------|                     
A|---------------------------------------8--7--5----------|                     
E|--------------------------------------------------------|                     

e|-------------------------------------------7--X--7-|                          
B|----7--X--X-----7--X-----7-----7-----7--X--7--X--7-|                          
G|----7--X--X-----7--X-----7--9--7-----7--X----------|                          
D|-9-----------9--------9-----------9----------------|                          
A|---------------------------------------------------|                          
E|---------------------------------------------------|                          

e|-7--7--X--7--7--7--X--7--X--7--X--7--X--7--7-----------|---------|            
B|-7--7--X--7--7--7--X--7--X--7--X--7--X--7--7--10-------|---------|            
G|--------------------------------------------------9--9-|-7-------|            
D|-------------------------------------------------------|----9--9-|            
A|-------------------------------------------------------|---------|            
E|-------------------------------------------------------|---------|            

There is a better way to learn guitar.

FATpick is the tab player that listens.

Choose a song from our library or import custom songs.

FATpick will render any guitar tab as a scrolling “piano-roll” that indicates which and when notes should be played.

Songs can be synchronized with original recordings or configurable backing-tracks.

Get real-time feedback on timing and accuracy as you play along with any electric or acoustic guitar.

Slow down to nail a particular passage, or speed up to improve your mastery.

Track your progress through personal records or compete for a position on our global leaderboards.

Try FATpick for Free

Download for Mac OSX Download for Windows Download for Android Download for iOS

Early Access

I'm interested in the


FATpick for MacOS and FATpick for Windows are available to download immediately.

Download for Mac OSX Download for Windows

Pre-release versions of FATpick for other platforms are currently available to a limited audience.

 

Pre-release versions of FATpick are available to a limited audience.

During this field-testing phase FATpick is absolutely free.

Play any song from our growing library. Import custom tabs.

Works with any guitar. No extra equipment or cables needed.

No time limits.

Copyright © 2018 - 2019 FATpick LLC.