Comfortably Numb

by

Pink Floyd


from the album

The Wall

Cover art for The Wall by Pink Floyd featuring the song Comfortably Numb

Strings 1 Tablature

Standard (E A D G B E) Tuning
e|-2-|-2-|-2-|-0-|-3-----0-|-2-|-2-|-0-|-3-----0-|-2-|-2-|-0-|-3-----0-|-2-|-2-|
B|-3-|-3-|-3-|-2-|-3-----0-|-3-|-3-|-2-|-3-----0-|-3-|-3-|-2-|-3-----0-|-3-|-3-|
G|-4-|-4-|-4-|-2-|-0-----0-|-4-|-4-|-2-|-0-----0-|-4-|-4-|-2-|-0-----0-|-4-|-4-|
D|-4-|-4-|-4-|-2-|-0-----2-|-4-|-4-|-2-|-0-----2-|-4-|-4-|-2-|-0-----2-|-4-|-4-|
A|-2-|-2-|-2-|-0-|-2-----2-|-2-|-2-|-0-|-2-----2-|-2-|-2-|-0-|-2-----2-|-2-|-2-|
E|---|---|---|---|-3--2--0-|---|---|---|-3--2--0-|---|---|---|-3--2--0-|---|---|

e|-0-|-3-----0-|-2-|-5-----------5-----------5-----------5----------|           
B|-2-|-3-----0-|-3-|----7--5--------7--5--------7--5--------7--5----|           
G|-2-|-0-----0-|-4-|----------7-----------7-----------7-----------7-|           
D|-2-|-0-----2-|-4-|------------------------------------------------|           
A|-0-|-2-----2-|-2-|------------------------------------------------|           
E|---|-3--2--0-|---|------------------------------------------------|           

e|-5-----------5-----------5-----------5----------|                             
B|----5-----------5-----------5-----------5-------|                             
G|-------7--6--------7--6--------7--6--------7--6-|                             
D|------------------------------------------------|                             
A|------------------------------------------------|                             
E|------------------------------------------------|                             

e|-5-----------5-----------5-----------5----------|                             
B|----7--5--------7--5--------7--5--------7--5----|                             
G|----------7-----------7-----------7-----------7-|                             
D|------------------------------------------------|                             
A|------------------------------------------------|                             
E|------------------------------------------------|                             

e|-0-----------0-----------0-----------0----------|                             
B|----2--0--------2--0--------2--0--------2--0----|                             
G|----------2-----------2-----------2-----------2-|                             
D|------------------------------------------------|                             
A|------------------------------------------------|                             
E|------------------------------------------------|                             

e|-3-----------3-----------3-----------3----------|                             
B|----5--3--------5--3--------5--3--------5--3----|                             
G|----------5-----------5-----------5-----------5-|                             
D|------------------------------------------------|                             
A|------------------------------------------------|                             
E|------------------------------------------------|                             

e|-3-----------3-----------3--------------------3-|                             
B|----3-----------3-----------3--------------3----|                             
G|-------5--4--------5--4--------5--4-----4-------|                             
D|-------------------------------------5----------|                             
A|------------------------------------------------|                             
E|------------------------------------------------|                             

e|-3-----------3-----------3-----------3----------|                             
B|----5--3--------5--3--------5--3--------5--3----|                             
G|----------5-----------5-----------5-----------5-|                             
D|------------------------------------------------|                             
A|------------------------------------------------|                             
E|------------------------------------------------|                             

e|-3-----------3-----------3----------------------|                             
B|----3-----------3-----------3--------------3--5-|                             
G|-------5--4--------5--4--------5--4-----4-------|                             
D|-------------------------------------5----------|                             
A|------------------------------------------------|                             
E|------------------------------------------------|                             

e|-5-----------5-----------5-----------5----------|                             
B|----7--5--------7--5--------7--5--------7--5----|                             
G|----------7-----------7-----------7-----------7-|                             
D|------------------------------------------------|                             
A|------------------------------------------------|                             
E|------------------------------------------------|                             

e|-5-----------5-----------5-----------5----------|                             
B|----5-----------5-----------5-----------5-------|                             
G|-------7--6--------7--6--------7--6--------7--6-|                             
D|------------------------------------------------|                             
A|------------------------------------------------|                             
E|------------------------------------------------|                             

e|-5-----------5-----------5-----------5----------|                             
B|----7--5--------7--5--------7--5--------7--5----|                             
G|----------7-----------7-----------7-----------7-|                             
D|------------------------------------------------|                             
A|------------------------------------------------|                             
E|------------------------------------------------|                             

e|-0-----------0-----------0-----------0----------|                             
B|----2--0--------2--0--------2--0--------2--0----|                             
G|----------2-----------2-----------2-----------2-|                             
D|------------------------------------------------|                             
A|------------------------------------------------|                             
E|------------------------------------------------|                             

e|-3-----------3-----------3-----------3----------|                             
B|----5--3--------5--3--------5--3--------5--3----|                             
G|----------5-----------5-----------5-----------5-|                             
D|------------------------------------------------|                             
A|------------------------------------------------|                             
E|------------------------------------------------|                             

e|-3-----------3-----------3--------------------3-|                             
B|----3-----------3-----------3--------------3----|                             
G|-------5--4--------5--4--------5--4-----4-------|                             
D|-------------------------------------5----------|                             
A|------------------------------------------------|                             
E|------------------------------------------------|                             

e|-3-----------3-----------3-----------3----------|                             
B|----5--3--------5--3--------5--3--------5--3----|                             
G|----------5-----------5-----------5-----------5-|                             
D|------------------------------------------------|                             
A|------------------------------------------------|                             
E|------------------------------------------------|                             

e|-3-----------3-----------3----------------------|---|---|---|---|---|---|---| 
B|----3-----------3-----------3--------------3--5-|---|---|---|---|---|---|---| 
G|-------5--4--------5--4--------5--4-----4-------|---|---|---|---|---|---|---| 
D|-------------------------------------5----------|---|---|---|---|---|---|---| 
A|------------------------------------------------|---|---|---|---|---|---|---| 
E|------------------------------------------------|---|---|---|---|---|---|---| 

e|---|---|---|---|---|---|---|-2-|-0-|-3-----0-|-2-|-2-|-0-|-3-----0-|-2-|      
B|---|---|---|---|---|---|---|-3-|-2-|-3-----0-|-3-|-3-|-2-|-3-----0-|-3-|      
G|---|---|---|---|---|---|---|-4-|-2-|-0-----0-|-4-|-4-|-2-|-0-----0-|-4-|      
D|---|---|---|---|---|---|---|-4-|-2-|-0-----2-|-4-|-4-|-2-|-0-----2-|-4-|      
A|---|---|---|---|---|---|---|-2-|-0-|-2-----2-|-2-|-2-|-0-|-2-----2-|-2-|      
E|---|---|---|---|---|---|---|---|---|-3--2--0-|---|---|---|-3--2--0-|---|      

e|-5-----------5-----------5-----------5----------|                             
B|----7--5--------7--5--------7--5--------7--5----|                             
G|----------7-----------7-----------7-----------7-|                             
D|------------------------------------------------|                             
A|------------------------------------------------|                             
E|------------------------------------------------|                             

e|-5-----------5-----------5-----------5----------|                             
B|----5-----------5-----------5-----------5-------|                             
G|-------7--6--------7--6--------7--6--------7--6-|                             
D|------------------------------------------------|                             
A|------------------------------------------------|                             
E|------------------------------------------------|                             

e|-5-----------5-----------5-----------5----------|                             
B|----7--5--------7--5--------7--5--------7--5----|                             
G|----------7-----------7-----------7-----------7-|                             
D|------------------------------------------------|                             
A|------------------------------------------------|                             
E|------------------------------------------------|                             

e|-0-----------0-----------0-----------0----------|                             
B|----2--0--------2--0--------2--0--------2--0----|                             
G|----------2-----------2-----------2-----------2-|                             
D|------------------------------------------------|                             
A|------------------------------------------------|                             
E|------------------------------------------------|                             

e|-3-----------3-----------3-----------3----------|                             
B|----5--3--------5--3--------5--3--------5--3----|                             
G|----------5-----------5-----------5-----------5-|                             
D|------------------------------------------------|                             
A|------------------------------------------------|                             
E|------------------------------------------------|                             

e|-3-----------3-----------3--------------------3-|                             
B|----3-----------3-----------3--------------3----|                             
G|-------5--4--------5--4--------5--4-----4-------|                             
D|-------------------------------------5----------|                             
A|------------------------------------------------|                             
E|------------------------------------------------|                             

e|-3-----------3-----------3-----------3----------|                             
B|----5--3--------5--3--------5--3--------5--3----|                             
G|----------5-----------5-----------5-----------5-|                             
D|------------------------------------------------|                             
A|------------------------------------------------|                             
E|------------------------------------------------|                             

e|-3-----------3-----------3----------------------|                             
B|----3-----------3-----------3--------------3--5-|                             
G|-------5--4--------5--4--------5--4-----4-------|                             
D|-------------------------------------5----------|                             
A|------------------------------------------------|                             
E|------------------------------------------------|                             

e|-5-----------5-----------5-----------5----------|                             
B|----7--5--------7--5--------7--5--------7--5----|                             
G|----------7-----------7-----------7-----------7-|                             
D|------------------------------------------------|                             
A|------------------------------------------------|                             
E|------------------------------------------------|                             

e|-5-----------5-----------5-----------5----------|                             
B|----5-----------5-----------5-----------5-------|                             
G|-------7--6--------7--6--------7--6--------7--6-|                             
D|------------------------------------------------|                             
A|------------------------------------------------|                             
E|------------------------------------------------|                             

e|-5-----------5-----------5-----------5----------|                             
B|----7--5--------7--5--------7--5--------7--5----|                             
G|----------7-----------7-----------7-----------7-|                             
D|------------------------------------------------|                             
A|------------------------------------------------|                             
E|------------------------------------------------|                             

e|-0-----------0-----------0-----------0----------|                             
B|----2--0--------2--0--------2--0--------2--0----|                             
G|----------2-----------2-----------2-----------2-|                             
D|------------------------------------------------|                             
A|------------------------------------------------|                             
E|------------------------------------------------|                             

e|-3-----------3-----------3-----------3----------|                             
B|----5--3--------5--3--------5--3--------5--3----|                             
G|----------5-----------5-----------5-----------5-|                             
D|------------------------------------------------|                             
A|------------------------------------------------|                             
E|------------------------------------------------|                             

e|-3-----------3-----------3--------------------3-|                             
B|----3-----------3-----------3--------------3----|                             
G|-------5--4--------5--4--------5--4-----4-------|                             
D|-------------------------------------5----------|                             
A|------------------------------------------------|                             
E|------------------------------------------------|                             

e|-3-----------3-----------3-----------3----------|                             
B|----5--3--------5--3--------5--3--------5--3----|                             
G|----------5-----------5-----------5-----------5-|                             
D|------------------------------------------------|                             
A|------------------------------------------------|                             
E|------------------------------------------------|                             

e|-3-----------3-----------3----------------------|---|---|---|---|-2-|-0-|     
B|----3-----------3-----------3--------------3--5-|---|---|---|---|-3-|-2-|     
G|-------5--4--------5--4--------5--4-----4-------|---|---|---|---|-4-|-2-|     
D|-------------------------------------5----------|---|---|---|---|-4-|-2-|     
A|------------------------------------------------|---|---|---|---|-2-|-0-|     
E|------------------------------------------------|---|---|---|---|---|---|     

e|-3-----0-|-2-|-2-|-0-|-3-----0-|-2-|-2-|-0-|-3-----0-|-2-|-2-|-0-|-3-----0-|  
B|-3-----0-|-3-|-3-|-2-|-3-----0-|-3-|-3-|-2-|-3-----0-|-3-|-3-|-2-|-3-----0-|  
G|-0-----0-|-4-|-4-|-2-|-0-----0-|-4-|-4-|-2-|-0-----0-|-4-|-4-|-2-|-0-----0-|  
D|-0-----2-|-4-|-4-|-2-|-0-----2-|-4-|-4-|-2-|-0-----2-|-4-|-4-|-2-|-0-----2-|  
A|-2-----2-|-2-|-2-|-0-|-2-----2-|-2-|-2-|-0-|-2-----2-|-2-|-2-|-0-|-2-----2-|  
E|-3--2--0-|---|---|---|-3--2--0-|---|---|---|-3--2--0-|---|---|---|-3--2--0-|  

e|-2-|-2-|-0-|-3-----0-|-2-|-2-|-0-|-3-----0-|-2-|-2-|-0-|-3-----0-|-2-|-2-|    
B|-3-|-3-|-2-|-3-----0-|-3-|-3-|-2-|-3-----0-|-3-|-3-|-2-|-3-----0-|-3-|-3-|    
G|-4-|-4-|-2-|-0-----0-|-4-|-4-|-2-|-0-----0-|-4-|-4-|-2-|-0-----0-|-4-|-4-|    
D|-4-|-4-|-2-|-0-----2-|-4-|-4-|-2-|-0-----2-|-4-|-4-|-2-|-0-----2-|-4-|-4-|    
A|-2-|-2-|-0-|-2-----2-|-2-|-2-|-0-|-2-----2-|-2-|-2-|-0-|-2-----2-|-2-|-2-|    
E|---|---|---|-3--2--0-|---|---|---|-3--2--0-|---|---|---|-3--2--0-|---|---|    

There is a better way to learn guitar.

FATpick is the tab player that listens.

Choose a song from our library or import custom songs.

FATpick will render any guitar tab as a scrolling “piano-roll” that indicates which and when notes should be played.

Songs can be synchronized with original recordings or configurable backing-tracks.

Get real-time feedback on timing and accuracy as you play along with any electric or acoustic guitar.

Slow down to nail a particular passage, or speed up to improve your mastery.

Track your progress through personal records or compete for a position on our global leaderboards.

Try FATpick for Free

Download for Mac OSX Download for Windows Download for Android Download for iOS

Early Access

I'm interested in the


FATpick for MacOS and FATpick for Windows are available to download immediately.

Download for Mac OSX Download for Windows

Pre-release versions of FATpick for other platforms are currently available to a limited audience.

 

Pre-release versions of FATpick are available to a limited audience.

During this field-testing phase FATpick is absolutely free.

Play any song from our growing library. Import custom tabs.

Works with any guitar. No extra equipment or cables needed.

No time limits.

Copyright © 2018 - 2019 FATpick LLC.