Back in Black

by

AC/DC


from the album

Back in Black

Cover art for Back in Black by AC/DC featuring the song Back in Black

Lead Guitar (Angus) Tablature

Standard (E A D G B E) Tuning
e|----X-----X-|----X-|------------------|----3--0-------------|                 
B|----X-----X-|----X-|----3--3--3-------|----------3--0-------|                 
G|-X--X--X--X-|-X--X-|----2--2--2--2--2-|-2--------------2--0-|                 
D|-X-----X----|-X----|-2--0--0--0--2--2-|-2-------------------|                 
A|-X-----X----|-X----|-2-----------0--0-|-0-------------------|                 
E|------------|------|-0----------------|---------------------|                 

e|------------------|---------------------------|------------------|            
B|----3--3--3-------|---------------------------|----3--3--3-------|            
G|----2--2--2--2--2-|-2-------------------------|----2--2--2--2--2-|            
D|-2--0--0--0--2--2-|-2-------------------------|-2--0--0--0--2--2-|            
A|-2-----------0--0-|-0--2-----2-----2-----2----|-2-----------0--0-|            
E|-0----------------|-------4-----5-----6-----7-|-0----------------|            

e|----3--0-------------|------------------|---------------------------|         
B|----------3--0-------|----3--3--3-------|---------------------------|         
G|-2--------------2--0-|----2--2--2--2--2-|-2-------------------------|         
D|-2-------------------|-2--0--0--0--2--2-|-2-------------------------|         
A|-0-------------------|-2-----------0--0-|-0--2-----2-----2-----2----|         
E|---------------------|-0----------------|-------4-----5-----6-----7-|         

e|------------------|----3--0-------------|------------------|                  
B|----3--3--3-------|----------3--0-------|----3--3--3-------|                  
G|----2--2--2--2--2-|-2--------------2--0-|----2--2--2--2--2-|                  
D|-2--0--0--0--2--2-|-2-------------------|-2--0--0--0--2--2-|                  
A|-2-----------0--0-|-0-------------------|-2-----------0--0-|                  
E|-0----------------|---------------------|-0----------------|                  

e|---------------------------|------------------|----3--0-------------|         
B|---------------------------|----3--3--3-------|----------3--0-------|         
G|-2-------------------------|----2--2--2--2--2-|-2--------------2--0-|         
D|-2-------------------------|-2--0--0--0--2--2-|-2-------------------|         
A|-0--2-----2-----2-----2----|-2-----------0--0-|-0-------------------|         
E|-------4-----5-----6-----7-|-0----------------|---------------------|         

e|------------------|---------------------------|---------------|---------------|
B|----3--3--3-------|---------------------------|---------------|---------------|
G|----2--2--2--2--2-|-2-------------------------|-2-----4--2--4-|-2-----4--2--4-|
D|-2--0--0--0--2--2-|-2-------------------------|-2--2--4--2--4-|-2--2--4--2--4-|
A|-2-----------0--0-|-0--2-----2-----2-----2----|-0--2--2--0--2-|-0--2--2--0--2-|
E|-0----------------|-------4-----5-----6-----7-|----0----------|----0----------|

e|-3--2----------|-3--2----------|---------------|---------------|              
B|-3--3----------|-3--3----------|---------------|---------------|              
G|-0--2--2-----2-|-0--2--2-----2-|-2-----4--2--4-|-2-----4--2--4-|              
D|-0--0--2-----2-|-0--0--2-----2-|-2--2--4--2--4-|-2--2--4--2--4-|              
A|-X-----0-----0-|-X-----0-----0-|-0--2--2--0--2-|-0--2--2--0--2-|              
E|-3--------3----|-3--------3----|----0----------|----0----------|              

e|-3--3--3--3--3--3--3--3-|-2--2--2-|------------------|----3--0-------------|  
B|-3--3--3--3--3--3--3--3-|-3--3--3-|----3--3--3-------|----------3--0-------|  
G|-0--0--0--0--0--0--0--0-|-2--2--2-|----2--2--2--2--2-|-2--------------2--0-|  
D|-0--0--0--0--0--0--0--0-|-0--0--0-|-2--0--0--0--2--2-|-2-------------------|  
A|-X--X--X--X--X--X--X--X-|---------|-2-----------0--0-|-0-------------------|  
E|-3--3--3--3--3--3--3--3-|---------|-0----------------|---------------------|  

e|------------------|---------------------------|------------------|            
B|----3--3--3-------|---------------------------|----3--3--3-------|            
G|----2--2--2--2--2-|-2-------------------------|----2--2--2--2--2-|            
D|-2--0--0--0--2--2-|-2-------------------------|-2--0--0--0--2--2-|            
A|-2-----------0--0-|-0--2-----2-----2-----2----|-2-----------0--0-|            
E|-0----------------|-------4-----5-----6-----7-|-0----------------|            

e|----3--0-------------|------------------|---------------------------|         
B|----------3--0-------|----3--3--3-------|---------------------------|         
G|-2--------------2--0-|----2--2--2--2--2-|-2-------------------------|         
D|-2-------------------|-2--0--0--0--2--2-|-2-------------------------|         
A|-0-------------------|-2-----------0--0-|-0--2-----2-----2-----2----|         
E|---------------------|-0----------------|-------4-----5-----6-----7-|         

e|---------------|---------------|-3--2----------|-3--2----------|              
B|---------------|---------------|-3--3----------|-3--3----------|              
G|-2-----4--2--4-|-2-----4--2--4-|-0--2--2-----2-|-0--2--2-----2-|              
D|-2--2--4--2--4-|-2--2--4--2--4-|-0--0--2-----2-|-0--0--2-----2-|              
A|-0--2--2--0--2-|-0--2--2--0--2-|-X-----0-----0-|-X-----0-----0-|              
E|----0----------|----0----------|-3--------3----|-3--------3----|              

e|---------------|---------------|-3--3--3--3--3--3--3--3-|-2--2--2-|           
B|---------------|---------------|-3--3--3--3--3--3--3--3-|-3--3--3-|           
G|-2-----4--2--4-|-2-----4--2--4-|-0--0--0--0--0--0--0--0-|-2--2--2-|           
D|-2--2--4--2--4-|-2--2--4--2--4-|-0--0--0--0--0--0--0--0-|-0--0--0-|           
A|-0--2--2--0--2-|-0--2--2--0--2-|-X--X--X--X--X--X--X--X-|---------|           
E|----0----------|----0----------|-3--3--3--3--3--3--3--3-|---------|           

e|------------|---------------------------------|------------|------------------|
B|------------|---------------------------------|------------|------------------|
G|------------|-------------0--2--3--2--0--2----|------------|-------7--7--7--7-|
D|------------|-------X--2--------------------2-|------------|------------------|
A|----7-----5-|----4----------------------------|-X--7-----5-|----4-------------|
E|-0-----0----|-0-------------------------------|-------0----|-0----------------|

e|------------------|-------------------------------------------------|         
B|-------8----------|----8--10--11--10--8--10--8----------------------|         
G|-7--7-----7-----9-|-9---------------------------9--7--9--12------12-|         
D|------------------|------------------------------------------14-----|         
A|-------------0----|-------------------------------------------------|         
E|------------------|-------------------------------------------------|         

e|-------------------------------|-------------------------------------------|  
B|-----15------15----------------|------------------------------------15-----|  
G|-14------14------14--12--14--0-|----12----------12------14--12--14------14-|  
D|-------------------------------|-X--12--14--14------14---------------------|  
A|-------------------------------|-------------------------------------------|  
E|-------------------------------|-------------------------------------------|  

e|---------12------------------12-------------------------|                     
B|-----12------15--15--15--15------15--12------12---------|                     
G|-14--------------------------------------14------12--14-|                     
D|--------------------------------------------------------|                     
A|--------------------------------------------------------|                     
E|--------------------------------------------------------|                     

e|--------------------------------------------|                                 
B|-15------15---------------------------------|                                 
G|-----14------14--12--14------12--14---------|                                 
D|-------------------------14----------14--14-|                                 
A|--------------------------------------------|                                 
E|--------------------------------------------|                                 

e|---------------------------------------------------|                          
B|-12------14--------------15------------------------|                          
G|-12------14------12--14------14--12--14------X-----|                          
D|-----14------14----------------------14--14--X--14-|                          
A|---------------------------------------------------|                          
E|---------------------------------------------------|                          

e|--------12-------------------------------|-------------0--------0-|           
B|----15------15--12------12---------------|-0-----3--5--3--2--3--3-|           
G|--------------------14------12------2--0-|----4-------------------|           
D|-X------------------------------14-------|------------------------|           
A|-X---------------------------------------|------------------------|           
E|-----------------------------------------|------------------------|           

e|-0-----0--0----------12----------------|-0--------0-----0----|                
B|-2--0--2--2------12------15--15--15--0-|-5--3--5--3--2--3--3-|                
G|-------------14----------------------0-|---------------------|                
D|---------------------------------------|---------------------|                
A|---------------------------------------|---------------------|                
E|---------------------------------------|---------------------|                

e|-0--0--0-------------12-|---------------|---------------|-3--2----------|     
B|-2--0--2--X--15--15-----|---------------|---------------|-3--3----------|     
G|----------X--14--14-----|-2-----4--2--4-|-2-----4--2--4-|-0--2--2-----2-|     
D|------------------------|-2--2--4--2--4-|-2--2--4--2--4-|-0--0--2-----2-|     
A|------------------------|-0--2--2--0--2-|-0--2--2--0--2-|-X-----0-----0-|     
E|------------------------|----0----------|----0----------|-3--------3----|     

e|-3--2----------|---------------|---------------|-3--3--3--3--3--3--3--3-|     
B|-3--3----------|---------------|---------------|-3--3--3--3--3--3--3--3-|     
G|-0--2--2-----2-|-2-----4--2--4-|-2-----4--2--4-|-0--0--0--0--0--0--0--0-|     
D|-0--0--2-----2-|-2--2--4--2--4-|-2--2--4--2--4-|-0--0--0--0--0--0--0--0-|     
A|-X-----0-----0-|-0--2--2--0--2-|-0--2--2--0--2-|-X--X--X--X--X--X--X--X-|     
E|-3--------3----|----0----------|----0----------|-3--3--3--3--3--3--3--3-|     

e|-2--2--2-|------------------------------------|                               
B|-3--3--3-|------------------------------------|                               
G|-2--2--2-|------------------------------------|                               
D|-0--0--0-|------------------------------------|                               
A|---------|----5--4--2--4-----2-----2-----2----|                               
E|---------|-0--------------3-----5-----6-----7-|                               

e|------------------------------------|------------------------------------|    
B|------------------------------------|------------------------------------|    
G|------------------------------------|------------------------------------|    
D|------------------------------------|------------------------------------|    
A|----5--4--2--4-----2-----2-----2----|----5--4--2--4-----2-----2-----2----|    
E|-0--------------3-----5-----6-----7-|-0--------------3-----5-----6-----7-|    

e|------------------------------------|------------------------------------|    
B|------------------------------------|------------------------------------|    
G|------------------------------------|------------------------------------|    
D|------------------------------------|----5--4--2--4-----2-----2-----2----|    
A|----5--4--2--4-----2-----2-----2----|-0--------------3-----5-----6-----7-|    
E|-0--------------3-----5-----6-----7-|------------------------------------|    

e|------------------------------------|------------------------------------|    
B|------------------------------------|------------------------------------|    
G|------------------------------------|------------------------------------|    
D|----5--4--2--4-----2-----2-----2----|------------------------------------|    
A|-0--------------3-----5-----6-----7-|----5--4--2--4-----2-----2-----2----|    
E|------------------------------------|-0--------------3-----5-----6-----7-|    

e|------------------------------------|---------------|---------------|         
B|------------------------------------|---------------|---------------|         
G|------------------------------------|-2-----4--2--4-|-2-----4--2--4-|         
D|------------------------------------|-2--2--4--2--4-|-2--2--4--2--4-|         
A|----5--4--2--4-----2-----2-----2----|-0--2--2--0--2-|-0--2--2--0--2-|         
E|-0--------------3-----5-----6-----7-|----0----------|----0----------|         

e|-3--2----------|-3--2----------|---------------|---------------|              
B|-3--3----------|-3--3----------|---------------|---------------|              
G|-0--2--2-----2-|-0--2--2-----2-|-2-----4--2--4-|-2-----4--2--4-|              
D|-0--0--2-----2-|-0--0--2-----2-|-2--2--4--2--4-|-2--2--4--2--4-|              
A|-X-----0-----0-|-X-----0-----0-|-0--2--2--0--2-|-0--2--2--0--2-|              
E|-3--------3----|-3--------3----|----0----------|----0----------|              

e|-3--3--3--3--3--3--3--3-|-2--2-----|----|--------------------|                
B|-3--3--3--3--3--3--3--3-|-3--3--13-|-12-|-10------------X----|                
G|-0--0--0--0--0--0--0--0-|-2--2-----|----|---------------0----|                
D|-0--0--0--0--0--0--0--0-|-0--0-----|----|---------0--0-------|                
A|-X--X--X--X--X--X--X--X-|----------|----|-----15--0--0-------|                
E|-3--3--3--3--3--3--3--3-|----------|----|------------------0-|                

e|----------0----------|-0--------0--7-------|-------------0--------0-|         
B|-5--3--5--3--2--2--3-|-2--0--0--2--8-------|-5--3--3--5--3--2--2--3-|         
G|---------------------|----------------9--9-|------------------------|         
D|---------------------|---------------------|------------------------|         
A|---------------------|---------------------|------------------------|         
E|---------------------|---------------------|------------------------|         

e|-0------------------12---------|-----------------------------12-|             
B|-2--0--0--2-----15------12--15-|-15--15--15--15--15--15--15-----|             
G|-------------X-----------------|--------------------------------|             
D|-------------------------------|--------------------------------|             
A|-------------------------------|--------------------------------|             
E|-------------------------------|--------------------------------|             

e|-12--------------------------15--15-|                                         
B|-----15--12------12-----------------|                                         
G|-------------14------12-------------|                                         
D|-------------------------14---------|                                         
A|------------------------------------|                                         
E|------------------------------------|                                         

e|-15--12--15--12------12---------------------------------------------------------------------------------|
B|-----------------15------15--12--15--12------12---------------------------------------------------------|
G|-----------------------------------------15------15--14--12--14--12------14--------------------------12-|
D|---------------------------------------------------------------------14------14--12--14--12------14--12-|
A|---------------------------------------------------------------------------------------------14---------|
E|--------------------------------------------------------------------------------------------------------|

e|------------------------------------|--------------------------------|        
B|---------------------------------20-|-20----------20--------------20-|        
G|------------------------------------|-----21--21------21--19--21-----|        
D|-12--12--12--12--12--12--12--12-----|--------------------------------|        
A|------------------------------------|--------------------------------|        
E|------------------------------------|--------------------------------|        

e|------------------------------------------------------------|                 
B|-20--20------20--20--20------20--20--20------20--20--20-----|                 
G|---------21--------------21--------------21--------------21-|                 
D|------------------------------------------------------------|                 
A|------------------------------------------------------------|                 
E|------------------------------------------------------------|                 

e|-----------------------------------------22------22-----|                     
B|-20--20--20------20--20--20------20--22------22------22-|                     
G|-------------21--------------21-------------------------|                     
D|--------------------------------------------------------|                     
A|--------------------------------------------------------|                     
E|--------------------------------------------------------|                     

e|-22------22------22------22------22------19-|                                 
B|-----22------22------22------22------22-----|                                 
G|--------------------------------------------|                                 
D|--------------------------------------------|                                 
A|--------------------------------------------|                                 
E|--------------------------------------------|                                 

e|-22----------22----------22--------------22--19------19-----|                 
B|-22--22--22--22--22--22--22--22--22--22----------22------22-|                 
G|------------------------------------------------------------|                 
D|------------------------------------------------------------|                 
A|------------------------------------------------------------|                 
E|------------------------------------------------------------|                 

e|-19--19------19------22------19------19-------------|                         
B|---------22------22------22------22------22--22--19-|                         
G|----------------------------------------------------|                         
D|----------------------------------------------------|                         
A|----------------------------------------------------|                         
E|----------------------------------------------------|                         

e|--------------------------------------------------------|----------------|    
B|-20------22--20-----------------------------------------|----------------|    
G|-----21----------21--21--19--21--19--16--12------14--12-|-----12---------|    
D|---------------------------------------------14---------|-14------14--14-|    
A|--------------------------------------------------------|----------------|    
E|--------------------------------------------------------|----------------|    

There is a better way to learn guitar.

FATpick is the tab player that listens.

Choose a song from our library or import custom songs.

FATpick will render any guitar tab as a scrolling “piano-roll” that indicates which and when notes should be played.

Songs can be synchronized with original recordings or configurable backing-tracks.

Get real-time feedback on timing and accuracy as you play along with any electric or acoustic guitar.

Slow down to nail a particular passage, or speed up to improve your mastery.

Track your progress through personal records or compete for a position on our global leaderboards.

Try FATpick for Free

Download for Mac OSX Download for Windows Download for Android Download for iOS

Early Access

I'm interested in the


FATpick for MacOS and FATpick for Windows are available to download immediately.

Download for Mac OSX Download for Windows

Pre-release versions of FATpick for other platforms are currently available to a limited audience.

 

Pre-release versions of FATpick are available to a limited audience.

During this field-testing phase FATpick is absolutely free.

Play any song from our growing library. Import custom tabs.

Works with any guitar. No extra equipment or cables needed.

No time limits.

Copyright © 2018 - 2019 FATpick LLC.