Back in Black

by

AC/DC


from the album

Back in Black

Cover art for Back in Black by AC/DC featuring the song Back in Black

Rhythm Guitar (Malcolm) Tablature

Standard (E A D G B E) Tuning
e|----X-----X-|----X-|------------------|---|------------------|                
B|----X-----X-|----X-|----3--3--3-------|---|----3--3--3-------|                
G|-X--X--X--X-|-X--X-|----2--2--2--2--2-|-2-|----2--2--2--2--2-|                
D|-X-----X----|-X----|-2--0--0--0--2--2-|-2-|-2--0--0--0--2--2-|                
A|-X-----X----|-X----|-2-----------0--0-|-0-|-2-----------0--0-|                
E|------------|------|-0----------------|---|-0----------------|                

e|---------------------------|------------------|---|------------------|        
B|---------------------------|----3--3--3-------|---|----3--3--3-------|        
G|-2-------------------------|----2--2--2--2--2-|-2-|----2--2--2--2--2-|        
D|-2-------------------------|-2--0--0--0--2--2-|-2-|-2--0--0--0--2--2-|        
A|-0-------------------------|-2-----------0--0-|-0-|-2-----------0--0-|        
E|----7--4--7--5--7--6--7--7-|-0----------------|---|-0----------------|        

e|---------------------------|------------------|---|------------------|        
B|---------------------------|----3--3--3-------|---|----3--3--3-------|        
G|-2-------------------------|----2--2--2--2--2-|-2-|----2--2--2--2--2-|        
D|-2-------------------------|-2--0--0--0--2--2-|-2-|-2--0--0--0--2--2-|        
A|-0-------------------------|-2-----------0--0-|-0-|-2-----------0--0-|        
E|----7--4--7--5--7--6--7--7-|-0----------------|---|-0----------------|        

e|---------------------------|------------------|---|------------------|        
B|---------------------------|----3--3--3-------|---|----3--3--3-------|        
G|-2-------------------------|----2--2--2--2--2-|-2-|----2--2--2--2--2-|        
D|-2-------------------------|-2--0--0--0--2--2-|-2-|-2--0--0--0--2--2-|        
A|-0-------------------------|-2-----------0--0-|-0-|-2-----------0--0-|        
E|----7--4--7--5--7--6--7--7-|-0----------------|---|-0----------------|        

e|---------------------------|---------------|---------------|-3--2----------|  
B|---------------------------|---------------|---------------|-3--3----------|  
G|-2-------------------------|-2-----4--2--4-|-2-----4--2--4-|-0--2--2-----2-|  
D|-2-------------------------|-2--2--4--2--4-|-2--2--4--2--4-|-0--0--2-----2-|  
A|-0-------------------------|-0--2--2--0--2-|-0--2--2--0--2-|-X-----0-----0-|  
E|----7--4--7--5--7--6--7--7-|----0----------|----0----------|-3--------3----|  

e|-3--2----------|---------------|---------------|------------------|           
B|-3--3----------|---------------|---------------|------------------|           
G|-0--2--2-----2-|-2-----4--2--4-|-2-----4--2--4-|------------------|           
D|-0--0--2-----2-|-2--2--4--2--4-|-2--2--4--2--4-|-5--5--5--5--5--5-|           
A|-X-----0-----0-|-0--2--2--0--2-|-0--2--2--0--2-|-5--5--5--5--5--5-|           
E|-3--------3----|----0----------|----0----------|-3--3--3--3--3--3-|           

e|------------|------------------|---|------------------|                       
B|------------|----3--3--3-------|---|----3--3--3-------|                       
G|-7--7-----7-|----2--2--2--2--2-|-2-|----2--2--2--2--2-|                       
D|-7--7--7--7-|-2--0--0--0--2--2-|-2-|-2--0--0--0--2--2-|                       
A|-5--5--5--5-|-2-----------0--0-|-0-|-2-----------0--0-|                       
E|------------|-0----------------|---|-0----------------|                       

e|---------------------------|------------------|---|------------------|        
B|---------------------------|----3--3--3-------|---|----3--3--3-------|        
G|-2-------------------------|----2--2--2--2--2-|-2-|----2--2--2--2--2-|        
D|-2-------------------------|-2--0--0--0--2--2-|-2-|-2--0--0--0--2--2-|        
A|-0-------------------------|-2-----------0--0-|-0-|-2-----------0--0-|        
E|----7--4--7--5--7--6--7--7-|-0----------------|---|-0----------------|        

e|---------------------------|---------------|---------------|-3--2----------|  
B|---------------------------|---------------|---------------|-3--3----------|  
G|-2-------------------------|-2-----4--2--4-|-2-----4--2--4-|-0--2--2-----2-|  
D|-2-------------------------|-2--2--4--2--4-|-2--2--4--2--4-|-0--0--2-----2-|  
A|-0-------------------------|-0--2--2--0--2-|-0--2--2--0--2-|-X-----0-----0-|  
E|----7--4--7--5--7--6--7--7-|----0----------|----0----------|-3--------3----|  

e|-3--2----------|---------------|---------------|------------------|---------| 
B|-3--3----------|---------------|---------------|------------------|---------| 
G|-0--2--2-----2-|-2-----4--2--4-|-2-----4--2--4-|------------------|-7--7--7-| 
D|-0--0--2-----2-|-2--2--4--2--4-|-2--2--4--2--4-|-5--5--5--5--5--5-|-7--7--7-| 
A|-X-----0-----0-|-0--2--2--0--2-|-0--2--2--0--2-|-5--5--5--5--5--5-|-5--5--5-| 
E|-3--------3----|----0----------|----0----------|-3--3--3--3--3--3-|---------| 

e|------------------|---------|------------------|---------|------------------| 
B|----3--3--3-------|---------|----3--3--3-------|---------|----3--3--3-------| 
G|----2--2--2--2--2-|-2--2--2-|----2--2--2--2--2-|-2--2--2-|----2--2--2--2--2-| 
D|-2--0--0--0--2--2-|-2--2--2-|-2--0--0--0--2--2-|-2--2--2-|-2--0--0--0--2--2-| 
A|-2-----------0--0-|-0--0--0-|-2-----------0--0-|-0--0--0-|-2-----------0--0-| 
E|-0----------------|---------|-0----------------|---------|-0----------------| 

e|---------|------------------|---------|------------------|---------|          
B|---------|----3--3--3-------|---------|----3--3--3-------|---------|          
G|-2--2--2-|----2--2--2--2--2-|-2--2--2-|----2--2--2--2--2-|-2--2--2-|          
D|-2--2--2-|-2--0--0--0--2--2-|-2--2--2-|-2--0--0--0--2--2-|-2--2--2-|          
A|-0--0--0-|-2-----------0--0-|-0--0--0-|-2-----------0--0-|-0--0--0-|          
E|---------|-0----------------|---------|-0----------------|---------|          

e|------------------|---------|------------------|---------|------------------| 
B|----3--3--3-------|---------|----3--3--3-------|---------|----3--3--3-------| 
G|----2--2--2--2--2-|-2--2--2-|----2--2--2--2--2-|-2--2--2-|----2--2--2--2--2-| 
D|-2--0--0--0--2--2-|-2--2--2-|-2--0--0--0--2--2-|-2--2--2-|-2--0--0--0--2--2-| 
A|-2-----------0--0-|-0--0--0-|-2-----------0--0-|-0--0--0-|-2-----------0--0-| 
E|-0----------------|---------|-0----------------|---------|-0----------------| 

e|---------|---------------|---------------|-3--2----------|-3--2----------|    
B|---------|---------------|---------------|-3--3----------|-3--3----------|    
G|-2--2--2-|-2-----4--2--4-|-2-----4--2--4-|-0--2--2-----2-|-0--2--2-----2-|    
D|-2--2--2-|-2--2--4--2--4-|-2--2--4--2--4-|-0--0--2-----2-|-0--0--2-----2-|    
A|-0--0--0-|-0--2--2--0--2-|-0--2--2--0--2-|-X-----0-----0-|-X-----0-----0-|    
E|---------|----0----------|----0----------|-3--------3----|-3--------3----|    

e|---------------|---------------|------------------|---------|                 
B|---------------|---------------|------------------|---------|                 
G|-2-----4--2--4-|-2-----4--2--4-|------------------|-7--7--7-|                 
D|-2--2--4--2--4-|-2--2--4--2--4-|-5--5--5--5--5--5-|-7--7--7-|                 
A|-0--2--2--0--2-|-0--2--2--0--2-|-5--5--5--5--5--5-|-5--5--5-|                 
E|----0----------|----0----------|-3--3--3--3--3--3-|---------|                 

e|------------------------------------|------------------------------------|    
B|------------------------------------|------------------------------------|    
G|------------------------------------|------------------------------------|    
D|------------------------------------|------------------------------------|    
A|----5--4--2--4-----2-----2-----2----|----5--4--2--4-----2-----2-----2----|    
E|-0--------------3-----5-----6-----7-|-0--------------3-----5-----6-----7-|    

e|------------------------------------|------------------------------------|    
B|------------------------------------|------------------------------------|    
G|------------------------------------|------------------------------------|    
D|------------------------------------|------------------------------------|    
A|----5--4--2--4-----2-----2-----2----|----5--4--2--4-----2-----2-----2----|    
E|-0--------------3-----5-----6-----7-|-0--------------3-----5-----6-----7-|    

e|------------------------------------|------------------------------------|    
B|------------------------------------|------------------------------------|    
G|------------------------------------|------------------------------------|    
D|----5--4--2--4-----2-----2-----2----|----5--4--2--4-----2-----2-----2----|    
A|-0--------------3-----5-----6-----7-|-0--------------3-----5-----6-----7-|    
E|------------------------------------|------------------------------------|    

e|------------------------------------|------------------------------------|    
B|------------------------------------|------------------------------------|    
G|------------------------------------|------------------------------------|    
D|------------------------------------|------------------------------------|    
A|----5--4--2--4-----2-----2-----2----|----5--4--2--4-----2-----2-----2----|    
E|-0--------------3-----5-----6-----7-|-0--------------3-----5-----6-----7-|    

e|---------------|---------------|-3--2----------|-3--2----------|              
B|---------------|---------------|-3--3----------|-3--3----------|              
G|-2-----4--2--4-|-2-----4--2--4-|-0--2--2-----2-|-0--2--2-----2-|              
D|-2--2--4--2--4-|-2--2--4--2--4-|-0--0--2-----2-|-0--0--2-----2-|              
A|-0--2--2--0--2-|-0--2--2--0--2-|-X-----0-----0-|-X-----0-----0-|              
E|----0----------|----0----------|-3--------3----|-3--------3----|              

e|---------------|---------------|------------------|---------|---|---|         
B|---------------|---------------|------------------|-7--7--7-|---|---|         
G|-2-----4--2--4-|-2-----4--2--4-|------------------|-7--7--7-|-2-|---|         
D|-2--2--4--2--4-|-2--2--4--2--4-|-5--5--5--5--5--5-|-7--7--7-|-2-|---|         
A|-0--2--2--0--2-|-0--2--2--0--2-|-5--5--5--5--5--5-|-5--5--5-|-0-|---|         
E|----0----------|----0----------|-3--3--3--3--3--3-|---------|---|---|         

e|------------------|---------|------------------|---------|------------------| 
B|----3--3--3-------|---------|----3--3--3-------|---------|----3--3--3-------| 
G|----2--2--2--2--2-|-2--2--2-|----2--2--2--2--2-|-2--2--2-|----2--2--2--2--2-| 
D|-2--0--0--0--2--2-|-2--2--2-|-2--0--0--0--2--2-|-2--2--2-|-2--0--0--0--2--2-| 
A|-2-----------0--0-|-0--0--0-|-2-----------0--0-|-0--0--0-|-2-----------0--0-| 
E|-0----------------|---------|-0----------------|---------|-0----------------| 

e|---------|------------------|---------|------------------|---------|          
B|---------|----3--3--3-------|---------|----3--3--3-------|---------|          
G|-2--2--2-|----2--2--2--2--2-|-2--2--2-|----2--2--2--2--2-|-2--2--2-|          
D|-2--2--2-|-2--0--0--0--2--2-|-2--2--2-|-2--0--0--0--2--2-|-2--2--2-|          
A|-0--0--0-|-2-----------0--0-|-0--0--0-|-2-----------0--0-|-0--0--0-|          
E|---------|-0----------------|---------|-0----------------|---------|          

e|------------------|---------|------------------|---------|------------------| 
B|----3--3--3-------|---------|----3--3--3-------|---------|----3--3--3-------| 
G|----2--2--2--2--2-|-2--2--2-|----2--2--2--2--2-|-2--2--2-|----2--2--2--2--2-| 
D|-2--0--0--0--2--2-|-2--2--2-|-2--0--0--0--2--2-|-2--2--2-|-2--0--0--0--2--2-| 
A|-2-----------0--0-|-0--0--0-|-2-----------0--0-|-0--0--0-|-2-----------0--0-| 
E|-0----------------|---------|-0----------------|---------|-0----------------| 

e|---------|                                                                    
B|---------|                                                                    
G|-2--2--2-|                                                                    
D|-2--2--2-|                                                                    
A|-0--0--0-|                                                                    
E|---------|                                                                    

There is a better way to learn guitar.

FATpick is the tab player that listens.

Choose a song from our library or import custom songs.

FATpick will render any guitar tab as a scrolling “piano-roll” that indicates which and when notes should be played.

Songs can be synchronized with original recordings or configurable backing-tracks.

Get real-time feedback on timing and accuracy as you play along with any electric or acoustic guitar.

Slow down to nail a particular passage, or speed up to improve your mastery.

Track your progress through personal records or compete for a position on our global leaderboards.

Try FATpick for Free

Download for Mac OSX Download for Windows Download for Android Download for iOS

Early Access

I'm interested in the


FATpick for MacOS and FATpick for Windows are available to download immediately.

Download for Mac OSX Download for Windows

Pre-release versions of FATpick for other platforms are currently available to a limited audience.

 

Pre-release versions of FATpick are available to a limited audience.

During this field-testing phase FATpick is absolutely free.

Play any song from our growing library. Import custom tabs.

Works with any guitar. No extra equipment or cables needed.

No time limits.

Copyright © 2018 - 2019 FATpick LLC.