Rebel Yell

by

Billy Idol


from the album

Rebel Yell

Guitar Tablature

Standard (E A D G B E) Tuning
e|-10--10--10--10--10--10--10--10--10--10--10--10--10--10--10--10--10--10--10--10--10--10--10--10--10--10--10--10--10--10--10--10-|
B|-10--10--10--10--10--10--10--10--10--10--10--10--10--10--10--10--10--10--10--10--10--10--10--10--10--10--10--10--10--10--10--10-|
G|--------------------------------------------------------------------------------------------------------------------------------|
D|--------------------------------------------------------------------------------------------------------------------------------|
A|--------------------------------------------------------------------------------------------------------------------------------|
E|--------------------------------------------------------------------------------------------------------------------------------|

e|------------------------|------------------------|------------------------|   
B|------------------------|------------------------|------------------------|   
G|------------------------|------------------------|------------------------|   
D|------------------------|------------------------|------------------------|   
A|-5--5--5--5--5--5--5--5-|-4--4--4--4--4--4--4--4-|-2--2--2--2--2--2--2--2-|   
E|-3--3--3--3--3--3--3--3-|-2--2--2--2--2--2--2--2-|-0--0--0--0--0--0--0--0-|   

e|------------------------|------------------------|------------------------|   
B|------------------------|------------------------|------------------------|   
G|------------------------|------------------------|------------------------|   
D|------------------------|------------------------|------------------------|   
A|-2--2--2--2--2--2--2--2-|-5--5--5--5--5--5--5--5-|-4--4--4--4--4--4--4--4-|   
E|-0--0--0--0--0--0--0--0-|-3--3--3--3--3--3--3--3-|-2--2--2--2--2--2--2--2-|   

e|------------------------|------------------|---|---|---|---|-2--2--2--X-|     
B|------------------------|------------------|---|---|---|---|-3--3--3--X-|     
G|------------------------|------------------|-4-|---|---|---|-4--4--4--X-|     
D|------------------------|-------------7----|-4-|---|---|---|-4--4--4--X-|     
A|-2--2--2--2--2--2--2--2-|-2--2--2--2--5--7-|-2-|---|---|---|-2--2--2--X-|     
E|-0--0--0--0--0--0--0--0-|-0--0--0--0-----5-|---|---|---|---|------------|     

e|-2--2--2--X-|-2--2--2--X-|-2--2--2--X-|-2--2--2--X-|-2--2--2--X-|-2--2--2--X-|
B|-3--3--3--X-|-3--3--3--X-|-3--3--3--X-|-3--3--3--X-|-3--3--3--X-|-3--3--3--X-|
G|-4--4--4--X-|-4--4--4--X-|-4--4--4--X-|-2--2--2--X-|-2--2--2--X-|-4--4--4--X-|
D|-4--4--4--X-|-4--4--4--X-|-4--4--4--X-|-0--0--0--X-|-0--0--0--X-|-5--5--5--X-|
A|-2--2--2--X-|-2--2--2--X-|-2--2--2--X-|-0--0--0--X-|-0--0--0--X-|----------X-|
E|------------|------------|------------|------------|------------|------------|

e|-2--2-------------|-2--2--2--X-|-2--2--2--X-|-2--2--2--X-|-2--2--2--X-|       
B|-3--3-------------|-3--3--3--X-|-3--3--3--X-|-3--3--3--X-|-3--3--3--X-|       
G|-4--4-------------|-4--4--4--X-|-4--4--4--X-|-4--4--4--X-|-4--4--4--X-|       
D|-5--5--0--0-------|-4--4--4--X-|-4--4--4--X-|-4--4--4--X-|-4--4--4--X-|       
A|-------------0--0-|-2--2--2--X-|-2--2--2--X-|-2--2--2--X-|-2--2--2--X-|       
E|------------------|------------|------------|------------|------------|       

e|-2--2--2--X-|-2--2--2--X-|-2--2--2--X-|-2--2--2--X-|-------X--X--X--7-|       
B|-3--3--3--X-|-3--3--3--X-|-3--3--3--X-|-3--3--3--X-|-------X--X--X--7-|       
G|-2--2--2--X-|-2--2--2--X-|-4--4--4--X-|-4--4--4--X-|-------X--X--X--7-|       
D|-0--0--0--X-|-0--0--0--X-|-5--5--5--X-|-5--5--5--X-|-9--9--X--X--X----|       
A|-0--0--0--X-|-0--0--0--X-|----------X-|-0--0--0--X-|-9--9--X--X--X----|       
E|------------|------------|------------|------------|-7--7-------------|       

e|-7----------|-------X--X--X--7-|-7----------|-2--2--X--X--X--7-|-7----------| 
B|-7----------|-------X--X--X--7-|-7----------|-3--3--X--X--X--7-|-7----------| 
G|-7----------|-------X--X--X--7-|-7----------|-2--2--X--X--X--7-|-7----------| 
D|------------|-9--9--X--X--X----|------------|-0--0--X--X--X----|------------| 
A|------------|-9--9--X--X--X----|------------|-0--0-------------|------------| 
E|----5--7--5-|-7--7-------------|----5--7--5-|------------------|----5--7--5-| 

e|-2--2--X--X--X--7-|-7-------------|-------X--X--X--7-|-7----------|           
B|-3--3--X--X--X--7-|-7-------------|-------X--X--X--7-|-7----------|           
G|-4--4--X--X--X--7-|-7-------------|-------X--X--X--7-|-7----------|           
D|-5--5--X--X--X----|----0--0-------|-9--9--X--X--X----|------------|           
A|------------------|----------0--0-|-9--9--X--X--X----|------------|           
E|------------------|---------------|-7--7-------------|----5--7--5-|           

e|-------X--X--X--7-|-7----------|-2--2--X--X--X--7-|-7----------|              
B|-------X--X--X--7-|-7----------|-3--3--X--X--X--7-|-7----------|              
G|-------X--X--X--7-|-7----------|-2--2--X--X--X--7-|-7----------|              
D|-9--9--X--X--X----|------------|-0--0--X--X--X----|------------|              
A|-9--9--X--X--X----|------------|-0--0-------------|------------|              
E|-7--7-------------|----5--7--5-|------------------|----5--7--5-|              

e|-2--2--X--X--X--7-|-7-------|---|---|---|---|-2--2--2--X-|-2--2--2--X-|       
B|-3--3--X--X--X--7-|-7-------|---|---|---|---|-3--3--3--X-|-3--3--3--X-|       
G|-4--4--X--X--X--7-|-7-------|-4-|---|---|---|-4--4--4--X-|-4--4--4--X-|       
D|-5--5--X--X--X----|----0----|-4-|---|---|---|-4--4--4--X-|-4--4--4--X-|       
A|------------------|-------0-|-2-|---|---|---|-2--2--2--X-|-2--2--2--X-|       
E|------------------|---------|---|---|---|---|------------|------------|       

e|-2--2--2--X-|-2--2--2--X-|-2--2--2--X-|-2--2--2--X-|-2--2--2--X-|             
B|-3--3--3--X-|-3--3--3--X-|-3--3--3--X-|-3--3--3--X-|-3--3--3--X-|             
G|-4--4--4--X-|-4--4--4--X-|-2--2--2--X-|-2--2--2--X-|-4--4--4--X-|             
D|-4--4--4--X-|-4--4--4--X-|-0--0--0--X-|-0--0--0--X-|-5--5--5--X-|             
A|-2--2--2--X-|-2--2--2--X-|-0--0--0--X-|-0--0--0--X-|----------X-|             
E|------------|------------|------------|------------|------------|             

e|-2--2-------------|-2--2--2--X-|-2--2--2--X-|-2--2--2--X-|-2--2--2--X-|       
B|-3--3-------------|-3--3--3--X-|-3--3--3--X-|-3--3--3--X-|-3--3--3--X-|       
G|-4--4-------------|-4--4--4--X-|-4--4--4--X-|-4--4--4--X-|-4--4--4--X-|       
D|-5--5--0--0-------|-4--4--4--X-|-4--4--4--X-|-4--4--4--X-|-4--4--4--X-|       
A|-------------0--0-|-2--2--2--X-|-2--2--2--X-|-2--2--2--X-|-2--2--2--X-|       
E|------------------|------------|------------|------------|------------|       

e|-2--2--2--X-|-2--2--2--X-|-2--2--2--X-|-2--2--2--X-|-------X--X--X--7-|       
B|-3--3--3--X-|-3--3--3--X-|-3--3--3--X-|-3--3--3--X-|-------X--X--X--7-|       
G|-2--2--2--X-|-2--2--2--X-|-4--4--4--X-|-4--4--4--X-|-------X--X--X--7-|       
D|-0--0--0--X-|-0--0--0--X-|-5--5--5--X-|-5--5--5--X-|-9--9--X--X--X----|       
A|-0--0--0--X-|-0--0--0--X-|----------X-|-0--0--0--X-|-9--9--X--X--X----|       
E|------------|------------|------------|------------|-7--7-------------|       

e|-7----------|-------X--X--X--7-|-7----------|-2--2--X--X--X--7-|-7----------| 
B|-7----------|-------X--X--X--7-|-7----------|-3--3--X--X--X--7-|-7----------| 
G|-7----------|-------X--X--X--7-|-7----------|-2--2--X--X--X--7-|-7----------| 
D|------------|-9--9--X--X--X----|------------|-0--0--X--X--X----|------------| 
A|------------|-9--9--X--X--X----|------------|-0--0-------------|------------| 
E|----5--7--5-|-7--7-------------|----5--7--5-|------------------|----5--7--5-| 

e|-2--2--X--X--X--7-|-7-------------|-------X--X--X--7-|-7----------|           
B|-3--3--X--X--X--7-|-7-------------|-------X--X--X--7-|-7----------|           
G|-4--4--X--X--X--7-|-7-------------|-------X--X--X--7-|-7----------|           
D|-5--5--X--X--X----|----0--0-------|-9--9--X--X--X----|------------|           
A|------------------|----------0--0-|-9--9--X--X--X----|------------|           
E|------------------|---------------|-7--7-------------|----5--7--5-|           

e|-------X--X--X--7-|-7----------|-2--2--X--X--X--7-|-7----------|              
B|-------X--X--X--7-|-7----------|-3--3--X--X--X--7-|-7----------|              
G|-------X--X--X--7-|-7----------|-2--2--X--X--X--7-|-7----------|              
D|-9--9--X--X--X----|------------|-0--0--X--X--X----|------------|              
A|-9--9--X--X--X----|------------|-0--0-------------|------------|              
E|-7--7-------------|----5--7--5-|------------------|----5--7--5-|              

e|-2--2--X--X--X--7-|-7-------|---|---|---|---|-2--2-------|                    
B|-3--3--X--X--X--7-|-7-------|---|---|---|---|-3--3-------|                    
G|-4--4--X--X--X--7-|-7-------|-4-|---|---|---|-2--2-------|                    
D|-5--5--X--X--X----|----0----|-4-|---|---|---|-0--0-------|                    
A|------------------|-------0-|-2-|---|---|---|-0--0-------|                    
E|------------------|---------|---|---|---|---|-------0--2-|                    

e|------------------------|------------------------|------------------------|   
B|------------------------|------------------------|------------------------|   
G|------------------------|------------------------|------------------------|   
D|------------------------|------------------------|------------------------|   
A|-5--5--5--5--5--5--5--5-|-4--4--4--4--4--4--4--4-|-2--2--2--2--2--2--2--2-|   
E|-3--3--3--3--3--3--3--3-|-2--2--2--2--2--2--2--2-|-0--0--0--0--0--0--0--0-|   

e|------------------|------------------------|------------------------|         
B|------------------|------------------------|------------------------|         
G|------------------|------------------------|------------------------|         
D|------------------|------------------------|------------------------|         
A|-2--2--2--2--2--2-|-2--2--5--5--5--5--5--5-|-5--5--4--4--4--4--4--4-|         
E|-0--0--0--0--0--0-|-0--0--3--3--3--3--3--3-|-3--3--2--2--2--2--2--2-|         

e|------------------------|------------------|------------------------|         
B|------------------------|------------------|------------------------|         
G|------------------------|------------------|------------------------|         
D|------------------------|------------------|------------------------|         
A|-4--4--2--2--2--2--2--2-|-2--2--2--2--2--2-|-2--2--2--2--5--5--5--5-|         
E|-2--2--0--0--0--0--0--0-|-0--0--0--0--0--0-|-0--0--0--0--3--3--3--3-|         

e|------------------------|------------------------|------------------|         
B|------------------------|------------------------|------------------|         
G|------------------------|------------------------|------------------|         
D|------------------------|------------------------|------------------|         
A|-5--5--5--5--4--4--4--4-|-4--4--4--4--2--2--2--2-|-2--2--2--2--2--2-|         
E|-3--3--3--3--2--2--2--2-|-2--2--2--2--0--0--0--0-|-0--0--0--0--0--0-|         

e|------------------------|------------------------|------------------------|   
B|------------------------|------------------------|------------------------|   
G|------------------------|------------------------|------------------------|   
D|------------------------|------------------------|------------------------|   
A|-2--2--2--2--2--2--5--5-|-5--5--5--5--5--5--4--4-|-4--4--4--4--4--4--2--2-|   
E|-0--0--0--0--0--0--3--3-|-3--3--3--3--3--3--2--2-|-2--2--2--2--2--2--0--0-|   

e|------------------|------------------------|------------------------|         
B|------------------|------------------------|------------------------|         
G|------------------|------------------------|------------------------|         
D|------------------|------------------------|------------------------|         
A|-2--2--2--2--2--2-|-2--2--2--2--2--2--2--2-|-5--5--5--5--5--5--5--5-|         
E|-0--0--0--0--0--0-|-0--0--0--0--0--0--0--0-|-3--3--3--3--3--3--3--3-|         

e|------------------------|------------------------------------------------|    
B|------------------------|------------------------------------------------|    
G|------------------------|------------------------------------------------|    
D|------------------------|------------------------------------------------|    
A|-4--4--4--4--4--4--4--4-|-2--2--2--2--2--2--2--2--2--2--2--2--2--2--2--2-|    
E|-2--2--2--2--2--2--2--2-|-0--0--0--0--0--0--0--0--0--0--0--0--0--0--0--0-|    

e|-10--10--10--10--10--10--10--10--10--10--10--10--10--10--10--10-|             
B|-10--10--10--10--10--10--10--10--10--10--10--10--10--10--10--10-|             
G|----------------------------------------------------------------|             
D|----------------------------------------------------------------|             
A|----------------------------------------------------------------|             
E|----------------------------------------------------------------|             

e|-10--10--10--10--10--10--10--10--10--10--10--10--10--10--10--10-|             
B|-10--10--10--10--10--10--10--10--10--10--10--10--10--10--10--10-|             
G|----------------------------------------------------------------|             
D|----------------------------------------------------------------|             
A|----------------------------------------------------------------|             
E|----------------------------------------------------------------|             

e|--------------7-----------7--------7--7--------------------------------------------------------|
B|-10--------7--------7--7--------7--------7--7---------------------------------8-----------8----|
G|--9--7--9--------9-----------9---------------------------------------------7-----------7-------|
D|------------------------------------------------------------7--9--8--7--8--------7--8--------7-|
A|------------------------------------------------------7--9-------------------------------------|
E|-----------------------------------------------9--10-------------------------------------------|

e||-------|-------7-----------7----|----7--7-------|---|                        
B||-10----|----7--------7--7-------|-7--------7--7-|---|                        
G||--9--7-|-9--------9-----------9-|---------------|---|                        
D||-------|------------------------|---------------|---|                        
A||-------|------------------------|---------------|---|                        
E||-------|------------------------|---------------|-9-|                        

e|-------------------------|---------------|---------------|------------|       
B|-------------------------|----8----------|-8-----------8-|-7--5-----5-|       
G|-------------------------|-7-----------7-|----------7----|-------7----|       
D|-----------7--9--8--7--8-|-------7--8----|----7--8-------|------------|       
A|-----7--9----------------|---------------|---------------|------------|       
E|-10----------------------|---------------|---------------|------------|       

e|------------------------------------------------|                             
B|-X--X--X--X--X--X--X--X--X--X--X--X--X--X-------|                             
G|-X--X--X--X--X--X--X--X--X--X--X--X--X--X-------|                             
D|-X--X--X--X--X--X--X--X--X--X--X--X--X--X-------|                             
A|-X--X--X--X--X--X--X--X--X--X--X--X--X--X-------|                             
E|-------------------------------------------5--6-|                             

e|------------------------------|--------------------------------|              
B|------------------------------|-------------------------10--11-|              
G|------------------------------|-------------------7------------|              
D|-------------------------7--8-|-9--7--8--9--7--8-----9---------|              
A|-------------------5----------|--------------------------------|              
E|-7--5--6--7--5--6-----7-------|--------------------------------|              

e|--------------------------------|----------------------------7-|              
B|-12--10--11--12--10--12--10--11-|-12--12--12--10--10--12-------|              
G|--------------------------------|-------------------------9----|              
D|--------------------------------|------------------------------|              
A|--------------------------------|------------------------------|              
E|--------------------------------|------------------------------|              

e|---------------------------|------------------------12-|---|                  
B|---------------------------|----------------12---------|---|                  
G|-9--7--9--9--9--7--9--9--7-|-9--9--9--7---------10-----|---|                  
D|---------------------------|-------------9-------------|---|                  
A|---------------------------|---------------------------|---|                  
E|---------------------------|---------------------------|---|                  

e|-X--X-------------------------------------------|---|                         
B|-X--X--X--X-------------------------------------|---|                         
G|-------X--X--X--X-------------------------------|---|                         
D|-------------X--X--X--X-------------------------|---|                         
A|-------------------X--X--X--X-------------------|---|                         
E|-------------------------X--X--X--X--X--X--X--X-|---|                         

There is a better way to learn guitar.

FATpick is the tab player that listens.

Choose a song from our library or import custom songs.

FATpick will render any guitar tab as a scrolling “piano-roll” that indicates which and when notes should be played.

Songs can be synchronized with original recordings or configurable backing-tracks.

Get real-time feedback on timing and accuracy as you play along with any electric or acoustic guitar.

Slow down to nail a particular passage, or speed up to improve your mastery.

Track your progress through personal records or compete for a position on our global leaderboards.

Try FATpick for Free

Download for Mac OSX Download for Windows Download for Android Download for iOS

Early Access

I'm interested in the


FATpick for MacOS and FATpick for Windows are available to download immediately.

Download for Mac OSX Download for Windows

Pre-release versions of FATpick for other platforms are currently available to a limited audience.

 

Pre-release versions of FATpick are available to a limited audience.

During this field-testing phase FATpick is absolutely free.

Play any song from our growing library. Import custom tabs.

Works with any guitar. No extra equipment or cables needed.

No time limits.

Copyright © 2018 - 2019 FATpick LLC.