Pumped Up Kicks

by

Foster the People


from the album

Torches

Cover art for Torches by Foster the People featuring the song Pumped Up Kicks

Bass Tablature

Standard (E A D G) Tuning
G|------------|------------|------------|---------------|------------|          
D|------------|------------|------------|---------------|------------|          
A|------------|------------|-6--6--6----|---------------|------------|          
E|-1--1--1--3-|-4--4--6--8-|----------8-|-6--6--6--4--6-|-1--1--1--3-|          

G|------------|------------------|---|------------|------------|------------|   
D|------------|------------------|---|------------|------------|------------|   
A|------------|-6--6--6--8--6----|---|------------|------------|------------|   
E|-4--4--4--6-|----------------8-|---|-6--6--6--8-|-6--4--1--1-|-1--3--4--4-|   

G|---------------|------------|------------|------------------|---|------------|
D|---------------|------------|------------|------------------|---|------------|
A|-------6--6--6-|------------|------------|------------------|---|-6--6--6--8-|
E|-6--8----------|-8--6--6--6-|-4--6--1--1-|-1--3--4--4--4--6-|---|------------|

G|------------|------------|---------------|------------|------------|          
D|------------|------------|---------------|------------|------------|          
A|-6----------|------------|---------------|----------6-|-6--6-------|          
E|----8--6--6-|-6--8--6--4-|-1--1--1--3--4-|-4--6--8----|-------8--6-|          

G|------------------|---|------------|------------|------------|---------------|
D|------------------|---|------------|------------|------------|---------------|
A|------------------|---|------------|-------6--6-|-6--8--6----|---------------|
E|-6--6--4--6--1--1-|---|-1--3--4--4-|-4--6-------|----------8-|-6--6--6--8--6-|

G|------------|------------|------------------|---|------------|------------|   
D|------------|------------|------------------|---|------------|------------|   
A|------------|------------|----6--6--6-------|---|------------|------------|   
E|-4--1--1--1-|-3--4--4--6-|-8-----------8--6-|---|-6--6--4--6-|-1--1--1--3-|   

G|------------|---------------|------------|------------|------------------|    
D|------------|---------------|------------|------------|------------------|    
A|------------|-6--6--6--8--6-|------------|------------|------------------|    
E|-4--4--4--6-|---------------|-8--6--6--6-|-8--6--4--1-|-1--1--3--4--4--6-|    

G|------------------------------------------------------------------------------------------|
D|------------------------------------------------------------------------------------------|
A|----6--6--6--------------------------------------------6--6--6--8--6----------------------|
E|-8-----------8--6--6--6--4--6--1--1--1--3--4--4--4--6-----------------8--6--6--6--8--6--4-|

There is a better way to learn bass.

FATpick is the tab player that listens.

Choose a song from our library or import custom songs.

FATpick will render any bass tab as a scrolling “piano-roll” that indicates which and when notes should be played.

Songs can be synchronized with original recordings or configurable backing-tracks.

Get real-time feedback on timing and accuracy as you play along with any electric or acoustic bass.

Slow down to nail a particular passage, or speed up to improve your mastery.

Track your progress through personal records or compete for a position on our global leaderboards.

Try FATpick for Free

Download for Mac OSX Download for Windows Download for Android Download for iOS

Early Access

I'm interested in the


FATpick for MacOS and FATpick for Windows are available to download immediately.

Download for Mac OSX Download for Windows

Pre-release versions of FATpick for other platforms are currently available to a limited audience.

 

Pre-release versions of FATpick are available to a limited audience.

During this field-testing phase FATpick is absolutely free.

Play any song from our growing library. Import custom tabs.

Works with any guitar. No extra equipment or cables needed.

No time limits.

Copyright © 2018 - 2019 FATpick LLC.