Boulevard of Broken Dreams

by

Green Day


from the album

American Idiot

Guitar (rhythm) Tablature

Standard (E A D G B E) Tuning
e|------------------------|------------------------|------------------------|   
B|------------------------|------------------------|------------------------|   
G|------------------------|------------------------|------------------------|   
D|------------------------|------------------------|-1--1--1--1--1--1--1--1-|   
A|------------------------|------------------------|------------------------|   
E|-1--1--1--1--1--1--1--1-|-4--4--4--4--4--4--4--4-|------------------------|   

e|------------------------|------------------------|------------------------|   
B|------------------------|------------------------|------------------------|   
G|------------------------|------------------------|------------------------|   
D|------------------------|------------------------|------------------------|   
A|-1--1--1--1--1--1--1--1-|------------------------|------------------------|   
E|------------------------|-1--1--1--1--1--1--1--1-|-4--4--4--4--4--4--4--4-|   

e|------------------------|------------------------|------------------------|   
B|------------------------|------------------------|------------------------|   
G|------------------------|------------------------|------------------------|   
D|-1--1--1--1--1--1--1--1-|------------------------|------------------------|   
A|------------------------|-1--1--1--1--1--1--1--1-|------------------------|   
E|------------------------|------------------------|-1--1--1--1--1--1--1--1-|   

e|------------------------|------------------------|------------------------|   
B|------------------------|------------------------|------------------------|   
G|------------------------|------------------------|------------------------|   
D|------------------------|-1--1--1--1--1--1--1--1-|------------------------|   
A|------------------------|------------------------|-1--1--1--1--1--1--1--1-|   
E|-4--4--4--4--4--4--4--4-|------------------------|------------------------|   

e|------------------------|------------------------|------------------------|   
B|------------------------|------------------------|------------------------|   
G|------------------------|------------------------|------------------------|   
D|------------------------|------------------------|-1--1--1--1--1--1--1--1-|   
A|------------------------|------------------------|------------------------|   
E|-1--1--1--1--1--1--1--1-|-4--4--4--4--4--4--4--4-|------------------------|   

e|------------------------|------------------------|------------------------|   
B|------------------------|------------------------|------------------------|   
G|------------------------|------------------------|------------------------|   
D|------------------------|------------------------|------------------------|   
A|-1--1--1--1--1--1--1--1-|------------------------|------------------------|   
E|------------------------|-1--1--1--1--1--1--1--1-|-4--4--4--4--4--4--4--4-|   

e|------------------------|------------------------|------------------------|   
B|------------------------|------------------------|------------------------|   
G|------------------------|------------------------|------------------------|   
D|-1--1--1--1--1--1--1--1-|------------------------|------------------------|   
A|------------------------|-1--1--1--1--1--1--1--1-|------------------------|   
E|------------------------|------------------------|-1--1--1--1--1--1--1--1-|   

e|------------------------|------------------------|------------------------|   
B|------------------------|------------------------|------------------------|   
G|------------------------|------------------------|------------------------|   
D|------------------------|-1--1--1--1--1--1--1--1-|------------------------|   
A|------------------------|------------------------|-1--1--1--1--1--1--1--1-|   
E|-4--4--4--4--4--4--4--4-|------------------------|------------------------|   

e|------------------------|------------------------|------------------------|   
B|------------------------|------------------------|------------------------|   
G|------------------------|------------------------|------------------------|   
D|------------------------|------------------------|-1--1--1--1--1--1--1--1-|   
A|------------------------|------------------------|------------------------|   
E|-1--1--1--1--1--1--1--1-|-4--4--4--4--4--4--4--4-|------------------------|   

e|------------------------|------------------------|------------------------|   
B|------------------------|------------------------|------------------------|   
G|------------------------|------------------------|------------------------|   
D|------------------------|------------------------|------------------------|   
A|-1--1--1--1--1--1--1--1-|------------------------|------------------------|   
E|------------------------|-1--1--1--1--1--1--1--1-|-4--4--4--4--4--4--4--4-|   

e|------------------------|------------------------|------------------------|   
B|------------------------|------------------------|------------------------|   
G|------------------------|------------------------|------------------------|   
D|-1--1--1--1--1--1--1--1-|------------------------|------------------------|   
A|------------------------|-1--1--1--1--1--1--1--1-|------------------------|   
E|------------------------|------------------------|-1--1--1--1--1--1--1--1-|   

e|------------------------|------------------------|------------------------|   
B|------------------------|------------------------|------------------------|   
G|------------------------|------------------------|-------------5--5--5--5-|   
D|------------------------|-1--1--1--1--1--1--1--1-|-------------5--5--5--5-|   
A|------------------------|------------------------|-1--1--1--1--3--3--3--3-|   
E|-4--4--4--4--4--4--4--4-|------------------------|------------------------|   

e|------------|------------|------------|---------------|------------|          
B|------------|------------|------------|---------------|------------|          
G|-6--6--6--6-|------------|-8--8--8--8-|---------------|-6--6--6--6-|          
D|-6--6--6--6-|-6--6--6--6-|-8--8--8--8-|-3--3--3--3--3-|-6--6--6--6-|          
A|-4--4--4--4-|-6--6--6--6-|-6--6--6--6-|-3--3--3--3--3-|-4--4--4--4-|          
E|------------|-4--4--4--4-|------------|-1--1--1--1--1-|------------|          

e|------------|------------|---------------|------------|------------|          
B|------------|------------|---------------|------------|------------|          
G|------------|-8--8--8--8-|---------------|-6--6--6--6-|------------|          
D|-6--6--6--6-|-8--8--8--8-|-3--3--3--3--3-|-6--6--6--6-|-6--6--6--6-|          
A|-6--6--6--6-|-6--6--6--6-|-3--3--3--3--3-|-4--4--4--4-|-6--6--6--6-|          
E|-4--4--4--4-|------------|-1--1--1--1--1-|------------|-4--4--4--4-|          

e|------------|---------------|------------|------------|------------|---|      
B|------------|---------------|------------|------------|------------|---|      
G|-8--8--8--8-|---------------|-6--6--6--6-|------------|-5--5--5--5-|-5-|      
D|-8--8--8--8-|-3--3--3--3--3-|-6--6--6--6-|-6--6--6--6-|-5--5--5--5-|-5-|      
A|-6--6--6--6-|-3--3--3--3--3-|-4--4--4--4-|-6--6--6--6-|-3--3--3--3-|-3-|      
E|------------|-1--1--1--1--1-|------------|-4--4--4--4-|------------|---|      

e|------------------------|------------------------|------------------------|   
B|------------------------|------------------------|------------------------|   
G|------------------------|------------------------|------------------------|   
D|------------------------|------------------------|-1--1--1--1--1--1--1--1-|   
A|------------------------|------------------------|------------------------|   
E|-1--1--1--1--1--1--1--1-|-4--4--4--4--4--4--4--4-|------------------------|   

e|------------------------|------------------------|------------------------|   
B|------------------------|------------------------|------------------------|   
G|------------------------|------------------------|------------------------|   
D|------------------------|------------------------|------------------------|   
A|-1--1--1--1--1--1--1--1-|------------------------|------------------------|   
E|------------------------|-1--1--1--1--1--1--1--1-|-4--4--4--4--4--4--4--4-|   

e|------------------------|------------------------|------------------------|   
B|------------------------|------------------------|------------------------|   
G|------------------------|------------------------|------------------------|   
D|-1--1--1--1--1--1--1--1-|------------------------|------------------------|   
A|------------------------|-1--1--1--1--1--1--1--1-|------------------------|   
E|------------------------|------------------------|-1--1--1--1--1--1--1--1-|   

e|------------------------|------------------------|------------------------|   
B|------------------------|------------------------|------------------------|   
G|------------------------|------------------------|------------------------|   
D|------------------------|-1--1--1--1--1--1--1--1-|------------------------|   
A|------------------------|------------------------|-1--1--1--1--1--1--1--1-|   
E|-4--4--4--4--4--4--4--4-|------------------------|------------------------|   

e|------------------------|------------------------|------------------------|   
B|------------------------|------------------------|------------------------|   
G|------------------------|------------------------|------------------------|   
D|------------------------|------------------------|-1--1--1--1--1--1--1--1-|   
A|------------------------|------------------------|------------------------|   
E|-1--1--1--1--1--1--1--1-|-4--4--4--4--4--4--4--4-|------------------------|   

e|------------------------|------------------------|------------------------|   
B|------------------------|------------------------|------------------------|   
G|------------------------|------------------------|------------------------|   
D|------------------------|------------------------|------------------------|   
A|-1--1--1--1--1--1--1--1-|------------------------|------------------------|   
E|------------------------|-1--1--1--1--1--1--1--1-|-4--4--4--4--4--4--4--4-|   

e|------------------------|------------------------|------------------------|   
B|------------------------|------------------------|------------------------|   
G|------------------------|------------------------|------------------------|   
D|-1--1--1--1--1--1--1--1-|------------------------|------------------------|   
A|------------------------|-1--1--1--1--1--1--1--1-|------------------------|   
E|------------------------|------------------------|-1--1--1--1--1--1--1--1-|   

e|------------------------|------------------------|------------------------|   
B|------------------------|------------------------|------------------------|   
G|------------------------|------------------------|------------------------|   
D|------------------------|-1--1--1--1--1--1--1--1-|------------------------|   
A|------------------------|------------------------|-1--1--1--1--1--1--1--1-|   
E|-4--4--4--4--4--4--4--4-|------------------------|------------------------|   

e|------------------------|------------------------|------------------------|   
B|------------------------|------------------------|------------------------|   
G|------------------------|------------------------|------------------------|   
D|------------------------|------------------------|-1--1--1--1--1--1--1--1-|   
A|------------------------|------------------------|------------------------|   
E|-1--1--1--1--1--1--1--1-|-4--4--4--4--4--4--4--4-|------------------------|   

e|------------------------|------------------------|------------------------|   
B|------------------------|------------------------|------------------------|   
G|------------------------|------------------------|------------------------|   
D|------------------------|------------------------|------------------------|   
A|-1--1--1--1--1--1--1--1-|------------------------|------------------------|   
E|------------------------|-1--1--1--1--1--1--1--1-|-4--4--4--4--4--4--4--4-|   

e|------------------------|------------------------|------------------------|   
B|------------------------|------------------------|------------------------|   
G|------------------------|------------------------|------------------------|   
D|-1--1--1--1--1--1--1--1-|------------------------|------------------------|   
A|------------------------|-1--1--1--1--1--1--1--1-|------------------------|   
E|------------------------|------------------------|-1--1--1--1--1--1--1--1-|   

e|------------------------|------------------------|------------------------|   
B|------------------------|------------------------|------------------------|   
G|------------------------|------------------------|-------------5--5--5--5-|   
D|------------------------|-1--1--1--1--1--1--1--1-|-------------5--5--5--5-|   
A|------------------------|------------------------|-1--1--1--1--3--3--3--3-|   
E|-4--4--4--4--4--4--4--4-|------------------------|------------------------|   

e|------------|------------|------------|---------------|------------|          
B|------------|------------|------------|---------------|------------|          
G|-6--6--6--6-|------------|-8--8--8--8-|---------------|-6--6--6--6-|          
D|-6--6--6--6-|-6--6--6--6-|-8--8--8--8-|-3--3--3--3--3-|-6--6--6--6-|          
A|-4--4--4--4-|-6--6--6--6-|-6--6--6--6-|-3--3--3--3--3-|-4--4--4--4-|          
E|------------|-4--4--4--4-|------------|-1--1--1--1--1-|------------|          

e|------------|------------|---------------|------------|------------|          
B|------------|------------|---------------|------------|------------|          
G|------------|-8--8--8--8-|---------------|-6--6--6--6-|------------|          
D|-6--6--6--6-|-8--8--8--8-|-3--3--3--3--3-|-6--6--6--6-|-6--6--6--6-|          
A|-6--6--6--6-|-6--6--6--6-|-3--3--3--3--3-|-4--4--4--4-|-6--6--6--6-|          
E|-4--4--4--4-|------------|-1--1--1--1--1-|------------|-4--4--4--4-|          

e|------------|---------------|------------|------------|------------|---|      
B|------------|---------------|------------|------------|------------|---|      
G|-8--8--8--8-|---------------|-6--6--6--6-|------------|-5--5--5--5-|-5-|      
D|-8--8--8--8-|-3--3--3--3--3-|-6--6--6--6-|-6--6--6--6-|-5--5--5--5-|-5-|      
A|-6--6--6--6-|-3--3--3--3--3-|-4--4--4--4-|-6--6--6--6-|-3--3--3--3-|-3-|      
E|------------|-1--1--1--1--1-|------------|-4--4--4--4-|------------|---|      

e|------------------------|------------------------|------------------------|   
B|------------------------|------------------------|------------------------|   
G|------------------------|------------------------|------------------------|   
D|------------------------|------------------------|-1--1--1--1--1--1--1--1-|   
A|------------------------|------------------------|------------------------|   
E|-1--1--1--1--1--1--1--1-|-4--4--4--4--4--4--4--4-|------------------------|   

e|------------------------|------------------------|------------------------|   
B|------------------------|------------------------|------------------------|   
G|------------------------|------------------------|------------------------|   
D|------------------------|------------------------|------------------------|   
A|-1--1--1--1--1--1--1--1-|------------------------|------------------------|   
E|------------------------|-1--1--1--1--1--1--1--1-|-4--4--4--4--4--4--4--4-|   

e|------------------------|------------------------|------------|------------|  
B|------------------------|------------------------|------------|------------|  
G|------------------------|-------------5--5--5--5-|-6--6--6--6-|------------|  
D|-1--1--1--1--1--1--1--1-|-------------5--5--5--5-|-6--6--6--6-|-6--6--6--6-|  
A|------------------------|-1--1--1--1--3--3--3--3-|-4--4--4--4-|-6--6--6--6-|  
E|------------------------|------------------------|------------|-4--4--4--4-|  

e|------------|---------------|------------|------------|------------|          
B|------------|---------------|------------|------------|------------|          
G|-8--8--8--8-|---------------|-6--6--6--6-|------------|-8--8--8--8-|          
D|-8--8--8--8-|-3--3--3--3--3-|-6--6--6--6-|-6--6--6--6-|-8--8--8--8-|          
A|-6--6--6--6-|-3--3--3--3--3-|-4--4--4--4-|-6--6--6--6-|-6--6--6--6-|          
E|------------|-1--1--1--1--1-|------------|-4--4--4--4-|------------|          

e|---------------|------|------|------------|---------------|------|------|     
B|---------------|------|------|------------|---------------|------|------|     
G|---------------|-6--6-|------|-8--8--8--8-|---------------|-6--6-|------|     
D|-3--3--3--3--3-|-6--6-|-6--6-|-8--8--8--8-|-3--3--3--3--3-|-6--6-|-6--6-|     
A|-3--3--3--3--3-|-4--4-|-6--6-|-6--6--6--6-|-3--3--3--3--3-|-4--4-|-6--6-|     
E|-1--1--1--1--1-|------|-4--4-|------------|-1--1--1--1--1-|------|-4--4-|     

e|------------|------------|------------|---|---|---|---|---|---|---|---|       
B|------------|------------|------------|---|---|---|---|---|---|---|---|       
G|-5--5--5--5-|-5--5--5--5-|-5--5--5--5-|-5-|---|---|---|---|---|---|---|       
D|-5--5--5--5-|-5--5--5--5-|-5--5--5--5-|-5-|---|---|---|---|---|---|---|       
A|-3--3--3--3-|-3--3--3--3-|-3--3--3--3-|-3-|---|---|---|---|---|---|---|       
E|------------|------------|------------|---|---|---|---|---|---|---|---|       

e|------------|------------|------------|------------|---------------|          
B|------------|------------|------------|------------|---------------|          
G|-3--3--3--3-|-6--6--6--6-|------------|-8--8--8--8-|---------------|          
D|-3--3--3--3-|-6--6--6--6-|-6--6--6--6-|-8--8--8--8-|-3--3--3--3--3-|          
A|-1--1--1--1-|-4--4--4--4-|-6--6--6--6-|-6--6--6--6-|-3--3--3--3--3-|          
E|------------|------------|-4--4--4--4-|------------|-1--1--1--1--1-|          

e|------------|------------|------------|---------------|------------|          
B|------------|------------|------------|---------------|------------|          
G|-6--6--6--6-|------------|-8--8--8--8-|---------------|-6--6--6--6-|          
D|-6--6--6--6-|-6--6--6--6-|-8--8--8--8-|-3--3--3--3--3-|-6--6--6--6-|          
A|-4--4--4--4-|-6--6--6--6-|-6--6--6--6-|-3--3--3--3--3-|-4--4--4--4-|          
E|------------|-4--4--4--4-|------------|-1--1--1--1--1-|------------|          

e|------------|------------|---------------|------------|------------|          
B|------------|------------|---------------|------------|------------|          
G|------------|-8--8--8--8-|---------------|-6--6--6--6-|------------|          
D|-6--6--6--6-|-8--8--8--8-|-3--3--3--3--3-|-6--6--6--6-|-6--6--6--6-|          
A|-6--6--6--6-|-6--6--6--6-|-3--3--3--3--3-|-4--4--4--4-|-6--6--6--6-|          
E|-4--4--4--4-|------------|-1--1--1--1--1-|------------|-4--4--4--4-|          

e|------------|------------|------------|------------|---------|---------|      
B|------------|------------|------------|------------|---------|---------|      
G|-5--5--5--5-|-5--5--5--5-|-5--5--5--5-|-5--5--5--5-|---------|-6--6--6-|      
D|-5--5--5--5-|-5--5--5--5-|-5--5--5--5-|-5--5--5--5-|-3--3--3-|-6--6--6-|      
A|-3--3--3--3-|-3--3--3--3-|-3--3--3--3-|-3--3--3--3-|-3--3--3-|-4--4--4-|      
E|------------|------------|------------|------------|-1--1--1-|---------|      

e|---------|---------|---------|------------|---------|---------|---------|     
B|---------|---------|---------|------------|---------|---------|---------|     
G|-8--8--8-|-7--7--7-|---------|------------|-------6-|-6--6--8-|-8--8--7-|     
D|-8--8--8-|-7--7--7-|-6--6--6-|-2--2--2--3-|-3--3--6-|-6--6--8-|-8--8--7-|     
A|-6--6--6-|-5--5--5-|-6--6--6-|-2--2--2--3-|-3--3--4-|-4--4--6-|-6--6--5-|     
E|---------|---------|-4--4--4-|-0--0--0--1-|-1--1----|---------|---------|     

e|---------|---------|------------|---------|---------|---------|---------|     
B|---------|---------|------------|---------|---------|---------|---------|     
G|-7--7----|---------|------------|----6--6-|-6--8--8-|-8--7--7-|-7-------|     
D|-7--7--6-|-6--6--2-|-2--2--3--3-|-3--6--6-|-6--8--8-|-8--7--7-|-7--6--6-|     
A|-5--5--6-|-6--6--2-|-2--2--3--3-|-3--4--4-|-4--6--6-|-6--5--5-|-5--6--6-|     
E|-------4-|-4--4--0-|-0--0--1--1-|-1-------|---------|---------|----4--4-|     

e|---------|------------|---------|---------|---------|---------|---------|---| 
B|---------|------------|---------|---------|---------|---------|---------|---| 
G|---------|------------|-6--6--6-|-8--8--8-|-7--7--7-|---------|---------|---| 
D|-6--2--2-|-2--3--3--3-|-6--6--6-|-8--8--8-|-7--7--7-|-6--6--6-|-2--2--2-|---| 
A|-6--2--2-|-2--3--3--3-|-4--4--4-|-6--6--6-|-5--5--5-|-6--6--6-|-2--2--2-|---| 
E|-4--0--0-|-0--1--1--1-|---------|---------|---------|-4--4--4-|-0--0--0-|---| 

e|---------|---------|---------|---------|------------|                         
B|---------|---------|---------|---------|------------|                         
G|---------|-6--6--6-|-8--8--8-|-7--7--7-|------------|                         
D|-3--3--3-|-6--6--6-|-8--8--8-|-7--7--7-|-6--6--2--2-|                         
A|-3--3--3-|-4--4--4-|-6--6--6-|-5--5--5-|-6--6--2--2-|                         
E|-1--1--1-|---------|---------|---------|-4--4--0--0-|                         

There is a better way to learn guitar.

FATpick is the tab player that listens.

Choose a song from our library or import custom songs.

FATpick will render any guitar tab as a scrolling “piano-roll” that indicates which and when notes should be played.

Songs can be synchronized with original recordings or configurable backing-tracks.

Get real-time feedback on timing and accuracy as you play along with any electric or acoustic guitar.

Slow down to nail a particular passage, or speed up to improve your mastery.

Track your progress through personal records or compete for a position on our global leaderboards.

Try FATpick for Free

Download for Mac OSX Download for Windows Download for Android Download for iOS

Early Access

I'm interested in the


FATpick for MacOS and FATpick for Windows are available to download immediately.

Download for Mac OSX Download for Windows

Pre-release versions of FATpick for other platforms are currently available to a limited audience.

 

Pre-release versions of FATpick are available to a limited audience.

During this field-testing phase FATpick is absolutely free.

Play any song from our growing library. Import custom tabs.

Works with any guitar. No extra equipment or cables needed.

No time limits.

Copyright © 2018 - 2019 FATpick LLC.