When I Come Around

by

Green Day


from the album

Dookie

Cover art for Dookie by Green Day featuring the song When I Come Around

Guitar Tablature

Eb (Eb Ab Db Gb Bb Eb) Tuning
eb|------|------------------------------|---------------|                       
Bb|------|------------------------------|---------------|                       
Gb|------|----------------------7-------|----9-----5----|                       
Db|-5--5-|-------5--------7--7--7--7--7-|-9--9--9--5--5-|                       
Ab|-5--5-|-5--5--5--5--5--5--5--5--5--5-|-7--7--7--3--5-|                       
Eb|------|-3--3--3--3--3----------------|-------------3-|                       

eb|---------------------------|---------------------|                           
Bb|---------------------------|---------------------|                           
Gb|-------------------7-------|----9-----5--5-------|                           
Db|----5--------7--7--7--7--7-|-9--9--9--5--5--7--7-|                           
Ab|-5--5--5--5--5--5--5--5--5-|-7--7--7--3--3--5--5-|                           
Eb|-3--3--3--3----------------|---------------------|                           

eb|------------------------------|---------------------|                        
Bb|------------------------------|---------------------|                        
Gb|----------------------7-------|----9-----5--5-------|                        
Db|-------5--------7--7--7--7--7-|-9--9--9--5--5--7--7-|                        
Ab|-5--5--5--5--5--5--5--5--5--5-|-7--7--7--3--3--5--5-|                        
Eb|-3--3--3--3--3----------------|---------------------|                        

eb|------------------------------|---------------------|                        
Bb|------------------------------|---------------------|                        
Gb|----------------------7-------|----9-----5--5-------|                        
Db|-------5--------7--7--7--7--7-|-9--9--9--5--5--7--7-|                        
Ab|-5--5--5--5--5--5--5--5--5--5-|-7--7--7--3--3--5--5-|                        
Eb|-3--3--3--3--3----------------|---------------------|                        

eb|------------------------------|---------------------|                        
Bb|------------------------------|---------------------|                        
Gb|----------------------7-------|----9-----5--5-------|                        
Db|-------5--------7--7--7--7--7-|-9--9--9--5--5--7--7-|                        
Ab|-5--5--5--5--5--5--5--5--5--5-|-7--7--7--3--3--5--5-|                        
Eb|-3--3--3--3--3----------------|---------------------|                        

eb|------------------------------|---------------------|                        
Bb|------------------------------|---------------------|                        
Gb|----------------------7-------|----9-----5--5-------|                        
Db|-------5--------7--7--7--7--7-|-9--9--9--5--5--7--7-|                        
Ab|-5--5--5--5--5--5--5--5--5--5-|-7--7--7--3--3--5--5-|                        
Eb|-3--3--3--3--3----------------|---------------------|                        

eb|------------------------------|---------------------|                        
Bb|------------------------------|---------------------|                        
Gb|----------------------7-------|----9-----5--5-------|                        
Db|-------5--------7--7--7--7--7-|-9--9--9--5--5--7--7-|                        
Ab|-5--5--5--5--5--5--5--5--5--5-|-7--7--7--3--3--5--5-|                        
Eb|-3--3--3--3--3----------------|---------------------|                        

eb|------------------------------|---------------------|                        
Bb|------------------------------|---------------------|                        
Gb|----------------------7-------|----9-----5--5-------|                        
Db|-------5--------7--7--7--7--7-|-9--9--9--5--5--7--7-|                        
Ab|-5--5--5--5--5--5--5--5--5--5-|-7--7--7--3--3--5--5-|                        
Eb|-3--3--3--3--3----------------|---------------------|                        

eb|------------------------------|---------------------|                        
Bb|------------------------------|---------------------|                        
Gb|----------------------7-------|----9-----5--5-------|                        
Db|-------5--------7--7--7--7--7-|-9--9--9--5--5--7--7-|                        
Ab|-5--5--5--5--5--5--5--5--5--5-|-7--7--7--3--3--5--5-|                        
Eb|-3--3--3--3--3----------------|---------------------|                        

eb|------------------------------|---------------------|                        
Bb|------------------------------|---------------------|                        
Gb|----------------------7-------|----9-----5--5-------|                        
Db|-------5--------7--7--7--7--7-|-9--9--9--5--5--7--7-|                        
Ab|-5--5--5--5--5--5--5--5--5--5-|-7--7--7--3--3--5--5-|                        
Eb|-3--3--3--3--3----------------|---------------------|                        

eb|------------------------------|---------------------|------------------------|
Bb|------------------------------|---------------------|------------------------|
Gb|----------------------7-------|----9-----5--5-------|------------------------|
Db|-------5--------7--7--7--7--7-|-9--9--9--5--5--7--7-|-7--7--7--7--7--7--7--7-|
Ab|-5--5--5--5--5--5--5--5--5--5-|-7--7--7--3--3--5--5-|-7--7--7--7--7--7--7--7-|
Eb|-3--3--3--3--3----------------|---------------------|-5--5--5--5--5--5--5--5-|

eb|------------------------|------------------------|---------------------------|
Bb|------------------------|------------------------|---------------------------|
Gb|-5--5--5--5--5--5--5--5-|------------------------|-5--5--5--5--5--5--5--5--5-|
Db|-5--5--5--5--5--5--5--5-|-7--7--7--7--7--7--7--7-|-5--5--5--5--5--5--5--5--5-|
Ab|-3--3--3--3--3--3--3--3-|-7--7--7--7--7--7--7--7-|-3--3--3--3--3--3--3--3--3-|
Eb|------------------------|-5--5--5--5--5--5--5--5-|---------------------------|

eb|---------------------------|---------------------|                           
Bb|---------------------------|----8-----5--5-------|                           
Gb|-------------------7-------|----9-----5--5-------|                           
Db|----5--------7--7--7--7--7-|-9--9--9--5--5--7--7-|                           
Ab|-5--5--5--5--5--5--5--5--5-|-7--7--7--3--3--5--5-|                           
Eb|-3--3--3--3----------------|---------------------|                           

eb|------------------------------|---------------------|                        
Bb|------------------------------|----8-----5--5-------|                        
Gb|----------------------7-------|----9-----5--5-------|                        
Db|-------5--------7--7--7--7--7-|-9--9--9--5--5--7--7-|                        
Ab|-5--5--5--5--5--5--5--5--5--5-|-7--7--7--3--3--5--5-|                        
Eb|-3--3--3--3--3----------------|---------------------|                        

eb|------------------------------|---------------------|                        
Bb|------------------------------|----8-----5--5-------|                        
Gb|----------------------7-------|----9-----5--5-------|                        
Db|-------5--------7--7--7--7--7-|-9--9--9--5--5--7--7-|                        
Ab|-5--5--5--5--5--5--5--5--5--5-|-7--7--7--3--3--5--5-|                        
Eb|-3--3--3--3--3----------------|---------------------|                        

eb|------------------------------|---------------------|                        
Bb|------------------------------|----8-----5--5-------|                        
Gb|----------------------7-------|----9-----5--5-------|                        
Db|-------5--------7--7--7--7--7-|-9--9--9--5--5--7--7-|                        
Ab|-5--5--5--5--5--5--5--5--5--5-|-7--7--7--3--3--5--5-|                        
Eb|-3--3--3--3--3----------------|---------------------|                        

eb|------------------------------|---------------------|                        
Bb|------------------------------|----8-----5--5-------|                        
Gb|----------------------7-------|----9-----5--5-------|                        
Db|-------5--------7--7--7--7--7-|-9--9--9--5--5--7--7-|                        
Ab|-5--5--5--5--5--5--5--5--5--5-|-7--7--7--3--3--5--5-|                        
Eb|-3--3--3--3--3----------------|---------------------|                        

eb|------------------------------|---------------------|                        
Bb|------------------------------|----8-----5--5-------|                        
Gb|----------------------7-------|----9-----5--5-------|                        
Db|-------5--------7--7--7--7--7-|-9--9--9--5--5--7--7-|                        
Ab|-5--5--5--5--5--5--5--5--5--5-|-7--7--7--3--3--5--5-|                        
Eb|-3--3--3--3--3----------------|---------------------|                        

eb|------------------------------|---------------------|                        
Bb|------------------------------|----8-----5--5-------|                        
Gb|----------------------7-------|----9-----5--5-------|                        
Db|-------5--------7--7--7--7--7-|-9--9--9--5--5--7--7-|                        
Ab|-5--5--5--5--5--5--5--5--5--5-|-7--7--7--3--3--5--5-|                        
Eb|-3--3--3--3--3----------------|---------------------|                        

eb|------------------------------|---------------------|                        
Bb|------------------------------|----8-----5--5-------|                        
Gb|----------------------7-------|----9-----5--5-------|                        
Db|-------5--------7--7--7--7--7-|-9--9--9--5--5--7--7-|                        
Ab|-5--5--5--5--5--5--5--5--5--5-|-7--7--7--3--3--5--5-|                        
Eb|-3--3--3--3--3----------------|---------------------|                        

eb|------------------------------|---------------------|                        
Bb|------------------------------|----8-----5--5-------|                        
Gb|----------------------7-------|----9-----5--5-------|                        
Db|-------5--------7--7--7--7--7-|-9--9--9--5--5--7--7-|                        
Ab|-5--5--5--5--5--5--5--5--5--5-|-7--7--7--3--3--5--5-|                        
Eb|-3--3--3--3--3----------------|---------------------|                        

eb|------------------------------|---------------------|------------------------|
Bb|------------------------------|----8-----5--5-------|------------------------|
Gb|----------------------7-------|----9-----5--5-------|------------------------|
Db|-------5--------7--7--7--7--7-|-9--9--9--5--5--7--7-|-7--7--7--7--7--7--7--7-|
Ab|-5--5--5--5--5--5--5--5--5--5-|-7--7--7--3--3--5--5-|-7--7--7--7--7--7--7--7-|
Eb|-3--3--3--3--3----------------|---------------------|-5--5--5--5--5--5--5--5-|

eb|------------------------|------------------------|---------------------------|
Bb|------------------------|------------------------|---------------------------|
Gb|-5--5--5--5--5--5--5--5-|------------------------|-5--5--5--5--5--5--5--5--5-|
Db|-5--5--5--5--5--5--5--5-|-7--7--7--7--7--7--7--7-|-5--5--5--5--5--5--5--5--5-|
Ab|-3--3--3--3--3--3--3--3-|-7--7--7--7--7--7--7--7-|-3--3--3--3--3--3--3--3--3-|
Eb|------------------------|-5--5--5--5--5--5--5--5-|---------------------------|

eb|---------------------------|------------------------------------|            
Bb|---------------------------|------------------------------------|            
Gb|-------------------7-------|----9-----5--5----------------------|            
Db|----5--------7--7--7--7--7-|-9--9--9--5--5--7--7-----5--------7-|            
Ab|-5--5--5--5--5--5--5--5--5-|-7--7--7--3--3--5--5--5--5--5--5----|            
Eb|-3--3--3--3----------------|----------------------3--3--3--3----|            

eb|---------------------------|---------|---------------------------|           
Bb|---------------------------|---------|---------------------------|           
Gb|-------7-----------9-----5-|-5-------|-------------------7-------|           
Db|----7--7--7--7--9--9--9--5-|-5--7--7-|----5--------7--7--7--7--7-|           
Ab|-5--5--5--5--5--7--7--7--3-|-3--5--5-|-5--5--5--5--5--5--5--5--5-|           
Eb|---------------------------|---------|-3--3--3--3----------------|           

eb|---------------------|---------------------------|---------------------|     
Bb|----8-----5--5-------|---------------------------|----8-----5--5-------|     
Gb|----9-----5--5-------|-------------------7-------|----9-----5--5-------|     
Db|-9--9--9--5--5--7--7-|----5--------7--7--7--7--7-|-9--9--9--5--5--7--7-|     
Ab|-7--7--7--3--3--5--5-|-5--5--5--5--5--5--5--5--5-|-7--7--7--3--3--5--5-|     
Eb|---------------------|-3--3--3--3----------------|---------------------|     

eb|------------------------|------------------------|------------------------|  
Bb|------------------------|-5--5--5--5--5--5--5--5-|------------------------|  
Gb|------------------------|-5--5--5--5--5--5--5--5-|------------------------|  
Db|-7--7--7--7--7--7--7--7-|-5--5--5--5--5--5--5--5-|-7--7--7--7--7--7--7--7-|  
Ab|-7--7--7--7--7--7--7--7-|-3--3--3--3--3--3--3--3-|-7--7--7--7--7--7--7--7-|  
Eb|-5--5--5--5--5--5--5--5-|------------------------|-5--5--5--5--5--5--5--5-|  

eb|---------------------------|---------------------------|                     
Bb|---------------------------|---------------------------|                     
Gb|-5--5--5--5--5--5--5--5--5-|-------------------7-------|                     
Db|-5--5--5--5--5--5--5--5--5-|----5--------7--7--7--7--7-|                     
Ab|-3--3--3--3--3--3--3--3--3-|-5--5--5--5--5--5--5--5--5-|                     
Eb|---------------------------|-3--3--3--3----------------|                     

eb|------------------------------|---------------------------|                  
Bb|----8-----5--5----------------|----------------------8----|                  
Gb|----9-----5--5----------------|----------7-----------9----|                  
Db|-9--9--9--5--5--7--7-----5----|----7--7--7--7--7--9--9--9-|                  
Ab|-7--7--7--3--3--5--5--5--5--5-|-5--5--5--5--5--5--7--7----|                  
Eb|----------------------3--3--3-|-3-------------------------|                  

eb|------------------------------------|------------------------|               
Bb|----5--5----------------------------|-------------8-----5--5-|               
Gb|----5--5--------------------------7-|-------------9-----5--5-|               
Db|----5--5--7--7-----5--------7--7----|-7--7--7--9--9--9--5----|               
Ab|-7--3--3--5--5--5--5--5--5--5--5----|-5--5--5--7--7--7--3----|               
Eb|----------------3--3--3--3----------|------------------------|               

eb|---------------------------------------|------------------------||           
Bb|---------------------------------------|----8-----5--5----------||           
Gb|----------------------------7----------|----9-----5--5----------||           
Db|-5--7--7-----5--------7--7--7--7--7--9-|----9--9--5--5--7--7----||           
Ab|-3--5--5--5--5--5--5--5--5--5--5--5----|-7--7--7--3--3--5--5--5-||           
Eb|----------3--3--3--3-------------------|------------------------||           

eb|---------------------------|------------|---|                                
Bb|---------------------------|----8-----5-|---|                                
Gb|-------------------7-------|----9-----5-|---|                                
Db|----5--------7--7--7--7--7-|-9--9--9--5-|---|                                
Ab|-5--5--5--5--5--5--5--5--5-|-7--7--7--3-|---|                                
Eb|-3--3--3--3----------------|------------|---|                                

There is a better way to learn guitar.

FATpick is the tab player that listens.

Choose a song from our library or import custom songs.

FATpick will render any guitar tab as a scrolling “piano-roll” that indicates which and when notes should be played.

Songs can be synchronized with original recordings or configurable backing-tracks.

Get real-time feedback on timing and accuracy as you play along with any electric or acoustic guitar.

Slow down to nail a particular passage, or speed up to improve your mastery.

Track your progress through personal records or compete for a position on our global leaderboards.

Try FATpick for Free

Download for Mac OSX Download for Windows Download for Android Download for iOS

Early Access

I'm interested in the


FATpick for MacOS and FATpick for Windows are available to download immediately.

Download for Mac OSX Download for Windows

Pre-release versions of FATpick for other platforms are currently available to a limited audience.

 

Pre-release versions of FATpick are available to a limited audience.

During this field-testing phase FATpick is absolutely free.

Play any song from our growing library. Import custom tabs.

Works with any guitar. No extra equipment or cables needed.

No time limits.

Copyright © 2018 - 2019 FATpick LLC.