Sweet Child O’ Mine

by

Guns N’ Roses


from the album

Appetite for Destruction

Cover art for Appetite for Destruction by Guns N’ Roses featuring the song Sweet Child O’ Mine

Bass Tablature

Standard (E A D G) Tuning
G|---|---|---|---|---|---|---|---|----|-----11------11--12-|                    
D|---|---|---|---|---|---|---|---|----|-12------12---------|                    
A|---|---|---|---|---|---|---|---|-12-|--------------------|                    
E|---|---|---|---|---|---|---|---|----|--------------------|                    

G|-14--16--14--12--11--------|-----12-----|-10--9------10--9--------|--------|  
D|---------------------12--0-|-10------10-|--------10---------10--0-|-----12-|  
A|---------------------------|------------|-------------------------|-10-----|  
E|---------------------------|------------|-------------------------|--------|  

G|-12-----|-12--11------12--11-----|----|------------|------------------|       
D|-----12-|---------12----------12-|----|------------|----------7-------|       
A|--------|------------------------|----|-5--5--5--5-|-5--5--9-----9--0-|       
E|--------|------------------------|-10-|------------|------------------|       

G|------------|------------------|------------|------------------------|        
D|------------|-------3--2-------|------------|-------3--4--5----------|        
A|-3--3--3--3-|-3--3--------5--3-|------------|----------------0--3--4-|        
E|------------|------------------|-3--3--3--3-|-3--0-------------------|        

G|---------------|------------------|------------|---------------|              
D|---------------|----7--------5--4-|------------|---------------|              
A|-5--0--5--5--5-|-9-----0--5-------|-5--5--5--5-|-5--5--5--0--2-|              
E|---------------|------------------|------------|---------------|              

G|---------------|---------------------|---------------|------------------|     
D|---------------|---------------------|---------------|----------5-------|     
A|-3--3--3--0--3-|-3--3--0--3--3--2--0-|---------------|-------------0--0-|     
E|---------------|---------------------|-3--3--3--0--3-|-3--3--3----------|     

G|---------------|----7-------------|------------|---------------|              
D|---------------|-------------5--4-|------------|---------------|              
A|-5--0--5--5--5-|-5-----0--5-------|-5--5--5--5-|-5--5--5--0--2-|              
E|---------------|------------------|------------|---------------|              

G|---------------|------------------------|------------------|                  
D|---------------|------------------------|------------------|                  
A|-3--3--3--0--3-|-3----------------------|------------------|                  
E|---------------|----0--0--0--1--1--2--2-|-3--0--3--3--0--3-|                  

G|---------------------|--------------------|-----------------------------------|
D|---------------------|-------------10--11-|-12--12--12--12--12--12--12--------|
A|----------------3--4-|-5--5--5--0---------|-----------------------------------|
E|-3--0--3--3--0-------|--------------------|-----------------------------0--13-|

G|---------------|------------|------------|------------------|------------|    
D|---------------|------------|------------|-------7--5--4--0-|------------|    
A|-------------2-|-3--3--3--0-|-5--5--5--5-|-5--5-------------|----------2-|    
E|-5--5--5--5----|------------|------------|------------------|-5--5--5----|    

G|---------------|-----------------|---------------------------|------------|   
D|---------------|----------10--11-|-12--12--12--12--12--------|------------|   
A|-3--3--3--3--4-|-5--5--5---------|---------------------------|-5--5--5--5-|   
E|---------------|-----------------|---------------------0--12-|------------|   

G|----------7-------|------------|----5--------5----|------------------|        
D|------------------|------------|------------------|------------------|        
A|-5--5--5-----5--0-|-3--3--3--3-|-3-----0--3-----0-|------------------|        
E|------------------|------------|------------------|-3--0--3--3--0--3-|        

G|------------------------|---------------|----7----------|------------|        
D|----------------------7-|---------------|----------5--4-|------------|        
A|-------2--0--3--0--4----|-5--0--5--5--5-|-5-----5-------|-5--5--5--5-|        
E|-3--0-------------------|---------------|---------------|------------|        

G|---------------|---------------|---------------------|---------------|        
D|---------------|---------------|---------------------|---------------|        
A|-5--5--5--0--2-|-3--3--3--0--3-|-3--3--0--3--3--2--0-|---------------|        
E|---------------|---------------|---------------------|-3--3--3--0--3-|        

G|------------------|---------------|----7-------------|------------|           
D|----------5-------|---------------|-------------5--4-|------------|           
A|-------------0--0-|-5--0--5--5--5-|-5-----0--5-------|-5--5--5--5-|           
E|-3--3--3----------|---------------|------------------|------------|           

G|---------------|---------------|------------------------|------------------|  
D|---------------|---------------|------------------------|------------------|  
A|-5--5--5--0--2-|-3--3--3--0--3-|-3----------------------|------------------|  
E|---------------|---------------|----0--0--0--1--1--2--2-|-3--0--3--3--0--3-|  

G|---------------------|--------------------|-----------------------------------|
D|---------------------|-------------10--11-|-12--12--12--12--12--12--12--------|
A|----------------3--4-|-5--5--5--0---------|-----------------------------------|
E|-3--0--3--3--0-------|--------------------|-----------------------------0--13-|

G|---------------|------------|------------|------------------|------------|    
D|---------------|------------|------------|-------7--5--4--0-|------------|    
A|-------------2-|-3--3--3--0-|-5--5--5--5-|-5--5-------------|----------2-|    
E|-5--5--5--5----|------------|------------|------------------|-5--5--5----|    

G|---------------|-----------------|---------------------------|------------|   
D|---------------|----------10--11-|-12--12--12--12--12--------|------------|   
A|-3--3--3--3--4-|-5--5--5---------|---------------------------|-5--5--5--5-|   
E|---------------|-----------------|---------------------0--12-|------------|   

G|----------7-------|------------|------------------|------------------------|  
D|------------------|------------|------------------|-------3--4--5----------|  
A|-5--5--5-----5--0-|-3--3--3--3-|------------------|----------------0--3--4-|  
E|------------------|------------|-3--0--3--3--0--3-|-3--0-------------------|  

G|---------------|------------------|---------------|---------------|           
D|---------------|----7--------5--4-|---------------|---------------|           
A|-5--0--5--5--5-|-9-----0--5-------|-5--0--5--5--5-|-5--0--5--5--5-|           
E|---------------|------------------|---------------|---------------|           

G|---------------|------------------|---------------------|------------------|  
D|---------------|------------------|---------------------|------------------|  
A|-5--5--5--0--2-|-3--0--3--3--0--3-|-3--0--3--3--2--0--0-|------------------|  
E|---------------|------------------|---------------------|-3--0--3--3--0--3-|  

G|------------------------|------------------|----7--7--7--7--7--7--7--7----|   
D|-------3--4--5----------|------------------|------------------------------|   
A|----------------0--3--4-|-5--0--5--5--5--5-|------------------------------|   
E|-3--0-------------------|------------------|-5--------------------------0-|   

G|---------------|------------|------------|------------------|------------|    
D|---------------|------------|------------|-------7--5--4--0-|------------|    
A|-------------2-|-3--3--3--0-|-5--5--5--5-|-5--5-------------|----------2-|    
E|-5--5--5--5----|------------|------------|------------------|-5--5--5----|    

G|---------------|------------|------------------|------------|---------------| 
D|---------------|------------|------------------|------------|---------------| 
A|-3--3--3--3--4-|-5--5--5--5-|-5--5--5--5--5--5-|----------2-|-3--3--3--0--0-| 
E|---------------|------------|------------------|-5--5--5----|---------------| 

G|------------|----7--------7-----7----|------------|---------------|           
D|------------|------------------------|------------|---------------|           
A|-5--5--5--5-|-5-----5--5-----5-----0-|----------2-|-3--3--3--3----|           
E|------------|------------------------|-5--5--5----|-------------5-|           

G|------------------------|---------------------|---------------|-------5----|  
D|------------------------|---------------------|---------------|------------|  
A|-5--5--5--5--5--5--5--5-|-5--5--5--5--5--0--6-|----7--7-------|-3--3-------|  
E|------------------------|---------------------|-0--------0--0-|----------5-|  

G|-------4----|------------------|---------------|-------5----|-------4----|    
D|------------|-------7----------|---------------|------------|------------|    
A|-2--2-------|------------------|----7--7-------|-3--3-------|-2--2-------|    
E|----------0-|-5--5-----0--3--2-|-0--------0--0-|----------5-|----------0-|    

G|------------------|---------------|-------5----|-------4----|                 
D|-------7----------|---------------|------------|------------|                 
A|------------------|----7--7-------|-3--3-------|-2--2-------|                 
E|-5--5-----0--3--2-|-0--------0--0-|----------5-|----------0-|                 

G|------------------|---------------|-------5----|-------4----|                 
D|-------7----------|---------------|------------|------------|                 
A|------------------|----7--7-------|-3--3-------|-2--2-------|                 
E|-5--5-----0--3--2-|-0--------0--0-|----------5-|----------0-|                 

G|------------------------|------------------------|------------------|         
D|-------------------5--6-|-7--7--7--7--7--5-------|------------------|         
A|------------------------|-------------------7--5-|-------7----------|         
E|-5--5--5--5--5--5-------|------------------------|-0--0-----0--0--2-|         

G|------------------|------------------|------------------|------------------|  
D|-------5----------|------------------|------------------|------------------|  
A|------------------|------------------|-3--3--3--3--5----|-------7----------|  
E|-3--3-----3--3--0-|-5--0--5--5--5--0-|----------------3-|-0--0-----0--0--2-|  

G|------------------|------------------|------------------|------------------|  
D|-------5----------|------------------|------------------|------------------|  
A|------------------|------------------|-3--3--3--3--5----|-------7----------|  
E|-3--3-----3--3--0-|-5--0--5--5--5--0-|----------------3-|-0--0-----0--0--2-|  

G|------------------|------------------|------------------|------------------|  
D|-------5----------|------------------|------------------|------------------|  
A|------------------|------------------|-3--3--3--3--5----|-------7----------|  
E|-3--3-----3--3--0-|-5--0--5--5--5--0-|----------------3-|-0--0-----0--0--2-|  

G|------------------|------------------|------------------|---------|------|    
D|-------5----------|------------------|------------------|---------|------|    
A|------------------|------------------|-3--3--3--3--5----|---------|------|    
E|-3--3-----3--3--0-|-5--0--5--5--5--0-|----------------3-|-0--0--2-|-3--3-|    

G|------|---------------|---------|------|------|---------------|---------|     
D|------|---------------|---------|------|------|---------------|---------|     
A|------|-3--3--3--5----|---------|------|------|-3--3--3--5----|---------|     
E|-5--5-|-------------3-|-0--0--2-|-3--3-|-5--5-|-------------3-|-0--0--2-|     

G|------|------|---------------------|---------------------|                    
D|------|------|---------------------|---------------------|                    
A|------|------|-3--3--3--3--5-------|---------------------|                    
E|-3--3-|-5--5-|----------------3--3-|-0--0--0--0--0--0--2-|                    

G|---------------------|------------------------|---------------------|         
D|---------------------|------------------------|-14--14--14--0-------|         
A|---------------------|------------------------|---------------------|         
E|-3--3--3--3--3--3--0-|-5--5--5--5--5--5--0--0-|----------------5--3-|         

G|---------------|---------------|------------------|---------------------|     
D|---------------|-------5-------|------------------|---------------------|     
A|----7----------|---------------|------------------|-3--3--3--3--5--5----|     
E|-0-----0--0--2-|-3--3-----3--0-|-5--0--5--5--5--0-|-------------------3-|     

G|---------------|---------------|------------------|---------------------|     
D|---------------|-------5-------|------------------|---------------------|     
A|----7----------|---------------|------------------|-3--3--3--3--5--5----|     
E|-0-----0--0--2-|-3--3-----3--0-|-5--0--5--5--5--0-|-------------------3-|     

G|---------------|---------------|------------------|---------------------|     
D|---------------|-------5-------|------------------|---------------------|     
A|----7----------|---------------|------------------|-3--3--3--3--5--5----|     
E|-0-----0--0--2-|-3--3-----3--0-|-5--0--5--5--5--0-|-------------------3-|     

G|---------------------|----------4-------|---|------|---|---|---|---|---|---|  
D|---------------------|-------5----------|---|------|---|---|---|---|---|---|  
A|----------7----------|------------------|---|-3--5-|---|---|---|---|---|---|  
E|-0--0--0-----0--0--2-|-3--3--------3--0-|-5-|------|-0-|---|---|---|---|---|  

There is a better way to learn bass.

FATpick is the tab player that listens.

Choose a song from our library or import custom songs.

FATpick will render any bass tab as a scrolling “piano-roll” that indicates which and when notes should be played.

Songs can be synchronized with original recordings or configurable backing-tracks.

Get real-time feedback on timing and accuracy as you play along with any electric or acoustic bass.

Slow down to nail a particular passage, or speed up to improve your mastery.

Track your progress through personal records or compete for a position on our global leaderboards.

Try FATpick for Free

Download for Mac OSX Download for Windows Download for Android Download for iOS

Early Access

I'm interested in the


FATpick for MacOS and FATpick for Windows are available to download immediately.

Download for Mac OSX Download for Windows

Pre-release versions of FATpick for other platforms are currently available to a limited audience.

 

Pre-release versions of FATpick are available to a limited audience.

During this field-testing phase FATpick is absolutely free.

Play any song from our growing library. Import custom tabs.

Works with any guitar. No extra equipment or cables needed.

No time limits.

Copyright © 2018 - 2019 FATpick LLC.