Sweet Child O’ Mine

by

Guns N’ Roses


from the album

Appetite for Destruction

Cover art for Appetite for Destruction by Guns N’ Roses featuring the song Sweet Child O’ Mine

Lead Guitar Tablature

Standard (E A D G B E) Tuning
e|---|-----------------15------14-----|-----------------15------14-----|        
B|---|-----15-------------------------|-----15-------------------------|        
G|---|---------14--12------14------14-|---------14--12------14------14-|        
D|---|-12-----------------------------|-12-----------------------------|        
A|---|--------------------------------|--------------------------------|        
E|---|--------------------------------|--------------------------------|        

e|-----------------15------14-----|-----------------15------14-----|            
B|-----15-------------------------|-----15-------------------------|            
G|---------14--12------14------14-|---------14--12------14------14-|            
D|-14-----------------------------|-14-----------------------------|            
A|--------------------------------|--------------------------------|            
E|--------------------------------|--------------------------------|            

e|-----------------15------14-----|-----------------15------14-----|            
B|-----15-------------------------|-----15-------------------------|            
G|-12------14--12------14------14-|-12------14--12------14------14-|            
D|--------------------------------|--------------------------------|            
A|--------------------------------|--------------------------------|            
E|--------------------------------|--------------------------------|            

e|-----------------15------14-----|-----------------15------14-----|            
B|-----15-------------------------|-----15-------------------------|            
G|---------14--12------14------14-|---------14--12------14------14-|            
D|-12-----------------------------|-12-----------------------------|            
A|--------------------------------|--------------------------------|            
E|--------------------------------|--------------------------------|            

e|-----------------15------14-----|-----------------15------14-----|            
B|-----15-------------------------|-----15-------------------------|            
G|---------14--12------14------14-|---------14--12------14------14-|            
D|-12-----------------------------|-12-----------------------------|            
A|--------------------------------|--------------------------------|            
E|--------------------------------|--------------------------------|            

e|-----------------15------14-----|-----------------15------14-----|            
B|-----15-------------------------|-----15-------------------------|            
G|---------14--12------14------14-|---------14--12------14------14-|            
D|-14-----------------------------|-14-----------------------------|            
A|--------------------------------|--------------------------------|            
E|--------------------------------|--------------------------------|            

e|-----------------15------14-----|-----------------15------14-----|            
B|-----15-------------------------|-----15-------------------------|            
G|-12------14--12------14------14-|-12------14--12------14------14-|            
D|--------------------------------|--------------------------------|            
A|--------------------------------|--------------------------------|            
E|--------------------------------|--------------------------------|            

e|-----------------15------14-----|-----------------15------14-----|            
B|-----15-------------------------|-----15-------------------------|            
G|---------14--12------14------14-|---------14--12------14------14-|            
D|-12-----------------------------|-12-----------------------------|            
A|--------------------------------|--------------------------------|            
E|--------------------------------|--------------------------------|            

e|-----------------15------14-----|-----------------15------14-----|            
B|-----15-------------------------|-----15-------------------------|            
G|---------14--12------14------14-|---------14--12------14------14-|            
D|-12-----------------------------|-12-----------------------------|            
A|--------------------------------|--------------------------------|            
E|--------------------------------|--------------------------------|            

e|-----------------15------14-----|-----------------15------14-----|            
B|-----15-------------------------|-----15-------------------------|            
G|---------14--12------14------14-|---------14--12------14------14-|            
D|-14-----------------------------|-14-----------------------------|            
A|--------------------------------|--------------------------------|            
E|--------------------------------|--------------------------------|            

e|-----------------15------14-----|-----------------15------14-----|            
B|-----15-------------------------|-----15-------------------------|            
G|-12------14--12------14------14-|-12------14--12------14------14-|            
D|--------------------------------|--------------------------------|            
A|--------------------------------|--------------------------------|            
E|--------------------------------|--------------------------------|            

e|-12--------------12------14-----|-15------14------12---------|---|---|---|---|
B|---------15---------------------|-------------------------15-|---|---|---|---|
G|-----14------14------14------14-|-----14------14------14-----|---|---|---|---|
D|--------------------------------|----------------------------|---|---|---|---|
A|--------------------------------|----------------------------|---|---|---|---|
E|--------------------------------|----------------------------|---|---|---|---|

e|--------------------------------|-----------------12------10-----|            
B|-----14----------15------14-----|-----13-------------------------|            
G|---------14----------14------14-|---------12----------12------12-|            
D|-14----------14-----------------|-14----------14-----------------|            
A|--------------------------------|--------------------------------|            
E|--------------------------------|--------------------------------|            

e|-----------------15------14-----|-----------------15------14-----|            
B|-----15-------------------------|-----15-------------------------|            
G|---------14--12------14------14-|---------14--12------14------14-|            
D|-12-----------------------------|-12-----------------------------|            
A|--------------------------------|--------------------------------|            
E|--------------------------------|--------------------------------|            

e|--------------------------------|-----------------12------10-----|--------|   
B|-----14----------15------14-----|-----13-------------------------|-----15-|   
G|---------14----------14------14-|---------12----------12------12-|-14--14-|   
D|-14----------14-----------------|-14----------14-----------------|--------|   
A|--------------------------------|--------------------------------|--------|   
E|--------------------------------|--------------------------------|--------|   

e|----|----------|----------|----------|----------|----------|                  
B|-10-|-8--7--10-|-8--7--10-|-8-----10-|-8-----10-|-8--10--8-|                  
G|----|----------|----------|----9-----|----9-----|----------|                  
D|----|----------|----------|----------|----------|----------|                  
A|----|----------|----------|----------|----------|----------|                  
E|----|----------|----------|----------|----------|----------|                  

e|---------10--12--10-|---|---|---|---|---|---|---|---|---|---|---|---|---|---| 
B|-10--12-------------|---|---|---|---|---|---|---|---|---|---|---|---|---|---| 
G|--------------------|-9-|---|---|---|---|---|---|---|---|---|---|---|---|---| 
D|--------------------|---|---|---|---|---|---|---|---|---|---|---|---|---|---| 
A|--------------------|---|---|---|---|---|---|---|---|---|---|---|---|---|---| 
E|--------------------|---|---|---|---|---|---|---|---|---|---|---|---|---|---| 

e|---|---|---|---|--------------------------------|                             
B|---|---|---|---|-----14----------15------14-----|                             
G|---|---|---|---|---------14----------14------14-|                             
D|---|---|---|---|-14----------14-----------------|                             
A|---|---|---|---|--------------------------------|                             
E|---|---|---|---|--------------------------------|                             

e|-----------------12------10-----|-----------------15------14-----|            
B|-----13-------------------------|-----15-------------------------|            
G|---------12----------12------12-|---------14--12------14------14-|            
D|-14----------14-----------------|-12-----------------------------|            
A|--------------------------------|--------------------------------|            
E|--------------------------------|--------------------------------|            

e|-----------------15------14-----|--------------------------------|            
B|-----15-------------------------|-----14----------15------14-----|            
G|---------14--12------14------14-|---------14----------14------14-|            
D|-12-----------------------------|-14----------14-----------------|            
A|--------------------------------|--------------------------------|            
E|--------------------------------|--------------------------------|            

e|-----------------12------10-----|--------|----|----------|----------|         
B|-----13-------------------------|-----15-|-10-|-8--7--10-|-8--7--10-|         
G|---------12----------12------12-|-14--14-|----|----------|----------|         
D|-14----------14-----------------|--------|----|----------|----------|         
A|--------------------------------|--------|----|----------|----------|         
E|--------------------------------|--------|----|----------|----------|         

e|----------|----------|-------|---------------|-10-----|--------|----------|   
B|-8-----10-|-8-----10-|-8--10-|-8-------------|--------|-----10-|-8--7--10-|   
G|----9-----|----9-----|-------|----11------11-|-----11-|-11-----|----------|   
D|----------|----------|-------|--------12-----|--------|--------|----------|   
A|----------|----------|-------|---------------|--------|--------|----------|   
E|----------|----------|-------|---------------|--------|--------|----------|   

e|---------------10--10-|-8--10--12--12-|-12--10--10---------|                  
B|-8--7--10--12---------|---------------|-------------13--12-|                  
G|----------------------|---------------|--------------------|                  
D|----------------------|---------------|--------------------|                  
A|----------------------|---------------|--------------------|                  
E|----------------------|---------------|--------------------|                  

e|-------------------|---------10--12--10--12-|-14-|---|---|---|---|---|---|---|
B|-12----------10--8-|-10--12-----------------|----|---|---|---|---|---|---|---|
G|-----12------------|------------------------|----|---|---|---|---|---|---|---|
D|---------12--------|------------------------|----|---|---|---|---|---|---|---|
A|-------------------|------------------------|----|---|---|---|---|---|---|---|
E|-------------------|------------------------|----|---|---|---|---|---|---|---|

e|---|---|---|---|---|---|---|---|---|---|-17--15-|-14--15--14------15-|        
B|---|---|---|---|---|---|---|---|---|---|--------|-------------17-----|        
G|---|---|---|---|---|---|---|---|---|---|--------|--------------------|        
D|---|---|---|---|---|---|---|---|---|---|--------|--------------------|        
A|---|---|---|---|---|---|---|---|---|---|--------|--------------------|        
E|---|---|---|---|---|---|---|---|---|---|--------|--------------------|        

e|-14--15--14--------------14-|------------------------|                        
B|-------------17--16--17-----|-15--12-----------------|                        
G|----------------------------|---------14--12--11--12-|                        
D|----------------------------|------------------------|                        
A|----------------------------|------------------------|                        
E|----------------------------|------------------------|                        

e|----------------------------|----------------|----------------|-----15--15----|
B|---------------------13--12-|-13--12--10--13-|-13--12--12--12-|-------------7-|
G|---------11--12--14---------|----------------|----------------|-14------------|
D|-14--14---------------------|----------------|----------------|---------------|
A|----------------------------|----------------|----------------|---------------|
E|----------------------------|----------------|----------------|---------------|

e|---------|---------|-----------|------------|---------|---------|             
B|-------7-|---------|-----------|------------|----7--8-|-7-------|             
G|-9--9----|-9--9--8-|-8--11--11-|-9----------|-9-------|----9--8-|             
D|---------|---------|-----------|----9--7--9-|---------|---------|             
A|---------|---------|-----------|------------|---------|---------|             
E|---------|---------|-----------|------------|---------|---------|             

e|----------------|--------------8--7--11--7--8--11--12--14--11--12-|           
B|----------------|-7-----7--10-------------------------------------|           
G|-8--11--9--8--9-|----9--------------------------------------------|           
D|----------------|-------------------------------------------------|           
A|----------------|-------------------------------------------------|           
E|----------------|-------------------------------------------------|           

e|-14--15--12--14--15--14--12------14--11--12--14--12------12-----|             
B|-----------------------------15----------------------15------15-|             
G|----------------------------------------------------------------|             
D|----------------------------------------------------------------|             
A|----------------------------------------------------------------|             
E|----------------------------------------------------------------|             

e|------------------------|--------------------|------------|                   
B|-15--15--15--15--12-----|-15--15--15--12-----|-17--17--17-|                   
G|---------------------14-|-----------------14-|---------17-|                   
D|------------------------|--------------------|------------|                   
A|------------------------|--------------------|------------|                   
E|------------------------|--------------------|------------|                   

e|-----15-------------|---------12---------|----------------------------|       
B|-17------17--17--15-|-17--15------15--12-|----------------------------|       
G|--------------------|--------------------|-14--12--14--12--14--12--14-|       
D|--------------------|--------------------|----------------------------|       
A|--------------------|--------------------|----------------------------|       
E|--------------------|--------------------|----------------------------|       

e|--------------------------------|                                             
B|-----------------15----------15-|                                             
G|-12--14--12--14------14--12--14-|                                             
D|--------------------------------|                                             
A|--------------------------------|                                             
E|--------------------------------|                                             

e|-15------15------15-------------------------------|                           
B|-15------15----------15---------------------------|                           
G|-----14------14----------14--12------14--12-------|                           
D|---------------------------------14----------X--X-|                           
A|---------------------------------------------X--X-|                           
E|--------------------------------------------------|                           

e|--------------------------------------|--------------------------------------|
B|--------------------------------------|--------------------------------------|
G|-12--------------------12--14--12-----|-12--------------------12--14--12-----|
D|-----14--12--14--X--X--------------14-|-----14--12--14--X--X--------------14-|
A|--------------------------------------|--------------------------------------|
E|--------------------------------------|--------------------------------------|

e|----------------------------------------------------------------|             
B|---------------------------------12--12----------15--15--12-----|             
G|-12--12----------14--14--12--14----------14--12--------------14-|             
D|---------14--12-------------------------------------------------|             
A|----------------------------------------------------------------|             
E|----------------------------------------------------------------|             

e|-12--12----------15--15--12--15--14------12--15--12-----|                     
B|---------15--12----------------------15--------------15-|                     
G|--------------------------------------------------------|                     
D|--------------------------------------------------------|                     
A|--------------------------------------------------------|                     
E|--------------------------------------------------------|                     

e|-12--------------12--------------12--------------12---------|                 
B|-----15--12----------15--12--15------15--12----------15--12-|                 
G|-------------14------------------------------14-------------|                 
D|------------------------------------------------------------|                 
A|------------------------------------------------------------|                 
E|------------------------------------------------------------|                 

e|-----12--------------12--------------12------------------12----------15-|     
B|-15------15--12----------15--12--15------15--12------12------15--12-----|     
G|-----------------14------------------------------14---------------------|     
D|------------------------------------------------------------------------|     
A|------------------------------------------------------------------------|     
E|------------------------------------------------------------------------|     

e|-15--12--15--12------12-|                                                     
B|-----------------15-----|                                                     
G|------------------------|                                                     
D|------------------------|                                                     
A|------------------------|                                                     
E|------------------------|                                                     

e|-----12-------------------------------------------------|-----------|---|     
B|-15------15--12--------------15-------------------------|-----------|---|     
G|-----------------14--12--14------14--12------14--12-----|-12--2--14-|---|     
D|-----------------------------------------14----------14-|-----------|---|     
A|--------------------------------------------------------|-----------|---|     
E|--------------------------------------------------------|-----------|---|     

e|-X--X--------X-|-------X--X-|------|-X-----X-|---|-X-------|------------|     
B|-X--X--------X-|-------X--X-|----7-|-X-----X-|---|-X-------|------------|     
G|---------------|------------|-9----|-X--7--X-|---|----X--X-|-------X--X-|     
D|-------X--X----|-4--4-------|------|---------|---|----X--X-|-7--5--X--X-|     
A|-------X--X----|------------|------|---------|---|---------|------------|     
E|---------------|------------|------|---------|---|---------|------------|     

e|---------------------|---|                                                    
B|---------------------|---|                                                    
G|---------------------|-7-|                                                    
D|-7--5----------------|---|                                                    
A|-------7--5----------|---|                                                    
E|-------------7--5--3-|---|                                                    

e|------------------------------------------------------------------------|     
B|------------------------------------------------------------------------|     
G|-7--9--7--9--7--9--7--9--7--9--7--9--7--9--7--9--7--9--7--9--7--9--7--9-|     
D|------------------------------------------------------------------------|     
A|------------------------------------------------------------------------|     
E|------------------------------------------------------------------------|     

e|--------|---|--------------------|-------------------------22-|-22--22--22-|  
B|-12--12-|---|-15--12-------------|-----17----------17--17-----|------------|  
G|-12--12-|---|---------14--12--12-|-18------12--18-------------|------------|  
D|--------|---|--------------------|----------------------------|------------|  
A|--------|---|--------------------|----------------------------|------------|  
E|--------|---|--------------------|----------------------------|------------|  

e|-22--22--22-|-----17--17--17-|-17--15---------|--------12---------|           
B|------------|-17-------------|---------17--17-|-X--15------15--12-|           
G|------------|----------------|----------------|-------------------|           
D|------------|----------------|----------------|-------------------|           
A|------------|----------------|----------------|-------------------|           
E|------------|----------------|----------------|-------------------|           

e|-----------------12----------12--------------12--------------12--------------12-|
B|-15--12--14--12------15--12------15--12----------15--12----------15--12---------|
G|-----------------------------------------14--------------14--------------14-----|
D|--------------------------------------------------------------------------------|
A|--------------------------------------------------------------------------------|
E|--------------------------------------------------------------------------------|

e|-------------12--------------12--------------12--------------12-------------| 
B|-15--12----------15--12----------15--12----------15--12----------15--12-----| 
G|---------14--------------14--------------14--------------14--------------14-| 
D|----------------------------------------------------------------------------| 
A|----------------------------------------------------------------------------| 
E|----------------------------------------------------------------------------| 

e|------------------------|----------------|--------------------------------|   
B|-----15--15--12---------|-----15---------|--------------------------------|   
G|-12--------------14--14-|-14------14--12-|-14--14--12--14--14--12---------|   
D|------------------------|----------------|-------------------------14--12-|   
A|------------------------|----------------|--------------------------------|   
E|------------------------|----------------|--------------------------------|   

e|-----12------12---------|------------------------|----------------|           
B|-15------15------15--12-|-15--15--12-------------|----------------|           
G|------------------------|-------------14--14--12-|-14--14--14--14-|           
D|------------------------|------------------------|----------------|           
A|------------------------|------------------------|----------------|           
E|------------------------|------------------------|----------------|           

e|-------------------|--------|-------------|------|------|---|---|---|---|---| 
B|-------------------|--------|-------------|------|------|---|---|---|---|---| 
G|-14--14--14--15----|--------|-------------|------|------|---|---|---|---|---| 
D|-----------------X-|-14--14-|-9--9--5-----|------|------|---|---|---|---|---| 
A|-------------------|--------|----------10-|-7--2-|------|---|---|---|---|---| 
E|-------------------|--------|-------------|------|-5--3-|-0-|---|---|---|---| 

There is a better way to learn guitar.

FATpick is the tab player that listens.

Choose a song from our library or import custom songs.

FATpick will render any guitar tab as a scrolling “piano-roll” that indicates which and when notes should be played.

Songs can be synchronized with original recordings or configurable backing-tracks.

Get real-time feedback on timing and accuracy as you play along with any electric or acoustic guitar.

Slow down to nail a particular passage, or speed up to improve your mastery.

Track your progress through personal records or compete for a position on our global leaderboards.

Try FATpick for Free

Download for Mac OSX Download for Windows Download for Android Download for iOS

Early Access

I'm interested in the


FATpick for MacOS and FATpick for Windows are available to download immediately.

Download for Mac OSX Download for Windows

Pre-release versions of FATpick for other platforms are currently available to a limited audience.

 

Pre-release versions of FATpick are available to a limited audience.

During this field-testing phase FATpick is absolutely free.

Play any song from our growing library. Import custom tabs.

Works with any guitar. No extra equipment or cables needed.

No time limits.

Copyright © 2018 - 2019 FATpick LLC.