Sweet Child O’ Mine

by

Guns N’ Roses


from the album

Appetite for Destruction

Cover art for Appetite for Destruction by Guns N’ Roses featuring the song Sweet Child O’ Mine

Rhythm Guitar Tablature

Standard (E A D G B E) Tuning
e|---|---|---|---|---|---|---|------------|------------------------|-2--2--2-|  
B|---|---|---|---|---|---|---|-3--3--3--3-|-3--3--3--3--3--3--3--3-|-3--3--3-|  
G|---|---|---|---|---|---|---|-2--2--2--2-|-2--2--2--2--2--2--2--2-|-2--2--2-|  
D|---|---|---|---|---|---|---|-0--0--0--0-|-0--0--0--0--0--0--0--0-|-0--0--0-|  
A|---|---|---|---|---|---|---|------------|------------------------|---------|  
E|---|---|---|---|---|---|---|------------|------------------------|---------|  

e|-3--2--2--3--2-------|-0-----0-|---------------|---------|---|                
B|-3--------3-----3----|-1--3--1-|-3--1-----1----|-3-----0-|---|                
G|-2--------2-----2--2-|-0-----0-|-0-----0-----0-|-0--0--0-|---|                
D|-0-----------------0-|-2-----2-|-2-------------|-0-----0-|---|                
A|---------------------|-3-----3-|-3-------------|-2-----2-|---|                
E|---------------------|---------|---------------|-3-----3-|---|                

e|---------------------|-3--2--0--2--0-|-2--2--2-|-3--2--2--3--2-------|        
B|-3--3--3--3--3--3--3-|-3--3--3--3--3-|-3--3--3-|-3--------3-----3----|        
G|-2--2--2--2--2--2--2-|-2--2--0--2--2-|-2--2--2-|-2--------2-----2--2-|        
D|-0--0--0--0--0--0--0-|-0--0--0--0--0-|-0--0--0-|-0-----------------0-|        
A|---------------------|---------------|---------|---------------------|        
E|---------------------|---------------|---------|---------------------|        

e|-0-----0-|---------------|---------|---|---------------------|-3--2--0--2--0-|
B|-1--3--1-|-3--1-----1----|-3-----0-|---|-3--3--3--3--3--3--3-|-3--3--3--3--3-|
G|-0-----0-|-0-----0-----0-|-0--0--0-|---|-2--2--2--2--2--2--2-|-2--2--0--2--2-|
D|-2-----2-|-2-------------|-0-----0-|---|-0--0--0--0--0--0--0-|-0--0--0--0--0-|
A|-3-----3-|-3-------------|-2-----2-|---|---------------------|---------------|
E|---------|---------------|-3-----3-|---|---------------------|---------------|

e|-2--2--2-|-3--2--2--3--2-------|-0-----0-|---------------|---------|---|      
B|-3--3--3-|-3--------3-----3----|-1--3--1-|-3--1-----1----|-3-----0-|---|      
G|-2--2--2-|-2--------2-----2--2-|-0-----0-|-0-----0-----0-|-0--0--0-|---|      
D|-0--0--0-|-0-----------------0-|-2-----2-|-2-------------|-0-----0-|---|      
A|---------|---------------------|-3-----3-|-3-------------|-2-----2-|---|      
E|---------|---------------------|---------|---------------|-3-----3-|---|      

e|---------------------|-3--2--0--2--0-|-2--2--2-|-3--2--2--3--2-------|        
B|-3--3--3--3--3--3--3-|-3--3--3--3--3-|-3--3--3-|-3--------3-----3----|        
G|-2--2--2--2--2--2--2-|-2--2--0--2--2-|-2--2--2-|-2--------2-----2--2-|        
D|-0--0--0--0--0--0--0-|-0--0--0--0--0-|-0--0--0-|-0-----------------0-|        
A|---------------------|---------------|---------|---------------------|        
E|---------------------|---------------|---------|---------------------|        

e|-0-----0-|---------------|---------|---|---------------------|-3--2--0--2-|   
B|-1--3--1-|-3--1-----1----|-3-----0-|---|-3--3--3--3--3--3--3-|-3--3--3--3-|   
G|-0-----0-|-0-----0-----0-|-0--0--0-|---|-2--2--2--2--2--2--2-|-2--2--0--2-|   
D|-2-----2-|-2-------------|-0-----0-|---|-0--0--0--0--0--0--0-|-0--0--0--0-|   
A|-3-----3-|-3-------------|-2-----2-|---|---------------------|------------|   
E|---------|---------------|-3-----3-|---|---------------------|------------|   

e|------------|------|-2--2--2--2-|-3--2--0--2-|------------|------|-2-|        
B|------------|------|-3--3--3--3-|-3--3--3--3-|------------|------|-3-|        
G|-2--2--2--4-|-5--5-|-2--2--2--2-|-2--2--2--2-|-2--2--2--4-|-5--5-|-2-|        
D|-2--2--2--4-|-5--5-|-0--0--0--0-|-0--0--0--0-|-2--2--2--4-|-5--5-|-0-|        
A|-0--0--0--2-|-3--3-|------------|------------|-0--0--0--2-|-3--3-|---|        
E|------------|------|------------|------------|------------|------|---|        

e|-2--2--2--2-|-2--2--2-|-3--2--2--3--2-------|-0-----0-|---------------|       
B|-3--3--3--3-|-3--3--3-|-3--------3-----3----|-1--3--1-|-3--1-----1----|       
G|-2--2--2--2-|-2--2--2-|-2--------2-----2--2-|-0-----0-|-0-----0-----0-|       
D|-0--0--0--0-|-0--0--0-|-0-----------------0-|-2-----2-|-2-------------|       
A|------------|---------|---------------------|-3-----3-|-3-------------|       
E|------------|---------|---------------------|---------|---------------|       

e|---------|---|---------------------|-3--2--0--2--0-|-2--2--2-|                
B|-3-----0-|---|-3--3--3--3--3--3--3-|-3--3--3--3--3-|-3--3--3-|                
G|-0--0--0-|---|-2--2--2--2--2--2--2-|-2--2--0--2--2-|-2--2--2-|                
D|-0-----0-|---|-0--0--0--0--0--0--0-|-0--0--0--0--0-|-0--0--0-|                
A|-2-----2-|---|---------------------|---------------|---------|                
E|-3-----3-|---|---------------------|---------------|---------|                

e|-3--2--2--3--2-------|-0-----0-|---------------|---------|---|                
B|-3--------3-----3----|-1--3--1-|-3--1-----1----|-3-----0-|---|                
G|-2--------2-----2--2-|-0-----0-|-0-----0-----0-|-0--0--0-|---|                
D|-0-----------------0-|-2-----2-|-2-------------|-0-----0-|---|                
A|---------------------|-3-----3-|-3-------------|-2-----2-|---|                
E|---------------------|---------|---------------|-3-----3-|---|                

e|---------------------|-3--2--0--2--0-|-2--2--2-|-3--2--2--3--2-------|        
B|-3--3--3--3--3--3--3-|-3--3--3--3--3-|-3--3--3-|-3--------3-----3----|        
G|-2--2--2--2--2--2--2-|-2--2--0--2--2-|-2--2--2-|-2--------2-----2--2-|        
D|-0--0--0--0--0--0--0-|-0--0--0--0--0-|-0--0--0-|-0-----------------0-|        
A|---------------------|---------------|---------|---------------------|        
E|---------------------|---------------|---------|---------------------|        

e|-0-----0-|---------------|---------|---|---------------------|-3--2--0--2-|   
B|-1--3--1-|-3--1-----1----|-3-----0-|---|-3--3--3--3--3--3--3-|-3--3--3--3-|   
G|-0-----0-|-0-----0-----0-|-0--0--0-|---|-2--2--2--2--2--2--2-|-2--2--0--2-|   
D|-2-----2-|-2-------------|-0-----0-|---|-0--0--0--0--0--0--0-|-0--0--0--0-|   
A|-3-----3-|-3-------------|-2-----2-|---|---------------------|------------|   
E|---------|---------------|-3-----3-|---|---------------------|------------|   

e|------------|------|-2--2--2--2-|-3--2--0--2-|------------|------|-2-|        
B|------------|------|-3--3--3--3-|-3--3--3--3-|------------|------|-3-|        
G|-2--2--2--4-|-5--5-|-2--2--2--2-|-2--2--2--2-|-2--2--2--4-|-5--5-|-2-|        
D|-2--2--2--4-|-5--5-|-0--0--0--0-|-0--0--0--0-|-2--2--2--4-|-5--5-|-0-|        
A|-0--0--0--2-|-3--3-|------------|------------|-0--0--0--2-|-3--3-|---|        
E|------------|------|------------|------------|------------|------|---|        

e|-2--2--2--2-|-2--2--2-|-3--2--2--3--2-------|-0-----0-|---------------|       
B|-3--3--3--3-|-3--3--3-|-3--------3-----3----|-1--3--1-|-3--1-----1----|       
G|-2--2--2--2-|-2--2--2-|-2--------2-----2--2-|-0-----0-|-0-----0-----0-|       
D|-0--0--0--0-|-0--0--0-|-0-----------------0-|-2-----2-|-2-------------|       
A|------------|---------|---------------------|-3-----3-|-3-------------|       
E|------------|---------|---------------------|---------|---------------|       

e|---------|---|---------------------|-3--2--0--2--0-|-2--2--2-|                
B|-3-----0-|---|-3--3--3--3--3--3--3-|-3--3--3--3--3-|-3--3--3-|                
G|-0--0--0-|---|-2--2--2--2--2--2--2-|-2--2--0--2--2-|-2--2--2-|                
D|-0-----0-|---|-0--0--0--0--0--0--0-|-0--0--0--0--0-|-0--0--0-|                
A|-2-----2-|---|---------------------|---------------|---------|                
E|-3-----3-|---|---------------------|---------------|---------|                

e|-3--2--2--3--2-------|-0-----0-|---------------|---------|---|                
B|-3--------3-----3----|-1--3--1-|-3--1-----1----|-3-----0-|---|                
G|-2--------2-----2--2-|-0-----0-|-0-----0-----0-|-0--0--0-|---|                
D|-0-----------------0-|-2-----2-|-2-------------|-0-----0-|---|                
A|---------------------|-3-----3-|-3-------------|-2-----2-|---|                
E|---------------------|---------|---------------|-3-----3-|---|                

e|---------------------|-3--2--0--2--0-|------------|------|-2--2--2--2--2-|    
B|-3--3--3--3--3--3--3-|-3--3--3--3--3-|------------|------|-3--3--3--3--3-|    
G|-2--2--2--2--2--2--2-|-2--2--0--2--2-|-2--2--2--4-|-5--5-|-2--2--2--2--2-|    
D|-0--0--0--0--0--0--0-|-0--0--0--0--0-|-2--2--2--4-|-5--5-|-0--0--0--0--0-|    
A|---------------------|---------------|-0--0--0--2-|-3--3-|---------------|    
E|---------------------|---------------|------------|------|---------------|    

e|-3--2--0--2--2--2--2-|------------|---------|-2-|-2--2--2--2--2--2-|          
B|-3--3--3--3--3--3--3-|------------|---------|-3-|-3--3--3--3--3--3-|          
G|-2--2--2--2--2--2--2-|-2--2--2--4-|-5--5--5-|-2-|-2--2--2--2--2--2-|          
D|-0--0--0--0--0--0--0-|-2--2--2--4-|-5--5--5-|-0-|-0--0--0--0--0--0-|          
A|---------------------|-0--0--0--2-|-3--3--3-|---|------------------|          
E|---------------------|------------|---------|---|------------------|          

e|------------|------|-2--2--2--2--2-|-3--2--0--2--2--2--2-|------------|       
B|------------|------|-3--3--3--3--3-|-3--3--3--3--3--3--3-|------------|       
G|-2--2--2--4-|-5--5-|-2--2--2--2--2-|-2--2--2--2--2--2--2-|-2--2--2--4-|       
D|-2--2--2--4-|-5--5-|-0--0--0--0--0-|-0--0--0--0--0--0--0-|-2--2--2--4-|       
A|-0--0--0--2-|-3--3-|---------------|---------------------|-0--0--0--2-|       
E|------------|------|---------------|---------------------|------------|       

e|---------|------------------------|------------------|---------|---------|    
B|---------|------------------------|------------------|-0--0--0-|-1--1--1-|    
G|-5--5--5-|-7--7--7--7--7--7--7--7-|-7--7--7--7--7--8-|-0--0--0-|-0--0--0-|    
D|-5--5--5-|-7--7--7--7--7--7--7--7-|-7--7--7--7--7--8-|-2--2--2-|-2--2--2-|    
A|-3--3--3-|-5--5--5--5--5--5--5--5-|-5--5--5--5--5--6-|-2--2--2-|-3--3--3-|    
E|---------|------------------------|------------------|---------|---------|    

e|---------|---------------|---------|---------|---------|---------------|      
B|---------|-1--1--1--X--X-|-0--0--0-|-1--1--1-|---------|-1--1--1--X--X-|      
G|-4--4--4-|-2--2--2--X--X-|-0--0--0-|-0--0--0-|-4--4--4-|-2--2--2--X--X-|      
D|-4--4--4-|-2--2--2--X--X-|-2--2--2-|-2--2--2-|-4--4--4-|-2--2--2--X--X-|      
A|-2--2--2-|-0--0--0--X--X-|-2--2--2-|-3--3--3-|-2--2--2-|-0--0--0--X--X-|      
E|---------|---------------|---------|---------|---------|---------------|      

e|---------|---------|---------|---------------|---------|---------|---------|  
B|-0--0--0-|-1--1--1-|---------|-1--1--1--X--X-|-0--0--0-|-1--1--1-|---------|  
G|-0--0--0-|-0--0--0-|-4--4--4-|-2--2--2--X--X-|-0--0--0-|-0--0--0-|-4--4--4-|  
D|-2--2--2-|-2--2--2-|-4--4--4-|-2--2--2--X--X-|-2--2--2-|-2--2--2-|-4--4--4-|  
A|-2--2--2-|-3--3--3-|-2--2--2-|-0--0--0--X--X-|-2--2--2-|-3--3--3-|-2--2--2-|  
E|---------|---------|---------|---------------|---------|---------|---------|  

e|------------------------|------------------------|------------|------------|  
B|------------------------|------------------------|------------|------------|  
G|-2--2--2--2--2--2--2--2-|-2--2--2--2--2--2-------|------------|------------|  
D|-2--2--2--2--2--2--2--2-|-2--2--2--2--2--2-------|-2--2-------|-5--5--5--5-|  
A|-0--0--0--0--0--0--0--0-|-0--0--0--0--0--0-------|-2--2-------|-5--5--5--5-|  
E|------------------------|-------------------3--2-|-0--0--0--2-|-3--3--3--3-|  

e|------------|------------------|------------|------------|------------|       
B|------------|-------------3--3-|------------|------------|------------|       
G|-2--2--2--2-|-5--5--5--5--2--0-|------------|------------|-2--2--2--2-|       
D|-2--2--2--2-|-5--5--5--5--0--0-|-2--2-------|-5--5--5--5-|-2--2--2--2-|       
A|-0--0--0--0-|-3--3--3--3-----X-|-2--2-------|-5--5--5--5-|-0--0--0--0-|       
E|------------|----------------3-|-0--0--0--2-|-3--3--3--3-|------------|       

e|------------------|------------|------------|------------|------------------| 
B|-------------3--3-|------------|------------|------------|-------------3--3-| 
G|-5--5--5--5--2--0-|------------|------------|-2--2--2--2-|-5--5--5--5--2--0-| 
D|-5--5--5--5--0--0-|-2--2-------|-5--5--5--5-|-2--2--2--2-|-5--5--5--5--0--0-| 
A|-3--3--3--3-----X-|-2--2-------|-5--5--5--5-|-0--0--0--0-|-3--3--3--3-----X-| 
E|----------------3-|-0--0--0--2-|-3--3--3--3-|------------|----------------3-| 

e|------------|------------|------------|------------------|---------|---------|
B|------------|------------|------------|-------------3--3-|---------|---------|
G|------------|------------|-2--2--2--2-|-5--5--5--5--2--0-|---------|---------|
D|-2--2-------|-5--5--5--5-|-2--2--2--2-|-5--5--5--5--0--0-|----2--X-|-5--5--X-|
A|-2--2-------|-5--5--5--5-|-0--0--0--0-|-3--3--3--3-----X-|----2--X-|-5-------|
E|-0--0--0--2-|-3--3--3--3-|------------|----------------3-|-0--0--X-|-3-------|

e|---------|---------|---------|---------|---------|------------|               
B|---------|----3----|---------|---------|---------|-------3----|               
G|---------|-5--2----|---------|---------|---------|-X--5--2----|               
D|-7--7--X-|-5--0--5-|----2--X-|-5--5--X-|-7--7--X-|-X--5--0--5-|               
A|-7-------|-3-----5-|----2--X-|-5-------|-7-------|-X--3-----5-|               
E|-5-------|-------3-|-0--0--X-|-3-------|-5-------|----------3-|               

e|---------------------|---------------|---------------------|---------|        
B|---------------------|---------------|---------------------|----3----|        
G|---------------------|---------------|-2--2--2--2--2--2--X-|-5--2----|        
D|-2--------2-----2----|-5-----5--0--5-|-2--2--2--2--2--2--X-|-5--0--5-|        
A|-2--------2-----2----|-5--5--5-----5-|-0--0--0--0--0--0--X-|-3-----5-|        
E|-0--0--0--0--0--0--0-|-3-----3-----3-|---------------------|-------3-|        

e|------------------------|------------------|---------------------|            
B|------------------------|------------------|---------------------|            
G|------------------------|------------------|-2--2--2--2--2--2--2-|            
D|-2--2--2--2--2--2--2--2-|-5--5--5--5--5----|-2--2--2--2--2--2--2-|            
A|-2--2--2--2--2--2--2--2-|-5--5--5--5--5----|-0--0--0--0--0--0--0-|            
E|-0--0--0--0--0--0--0--0-|-3--3--3--3--3--0-|---------------------|            

e|------------------|------------------|---------------|------------------|     
B|-------------3----|------------------|---------------|------------------|     
G|-5--5--5--5--2----|------------------|---------------|-2--X--2--2--2--X-|     
D|-5--5--5--5--0--5-|-2--X--2--2--2----|-5--X--5--5----|-2--X--2--2--2--X-|     
A|-3--3--3--3-----5-|-2--X--2--2--2----|-5--X--5--5----|-0--X--0--0--0--X-|     
E|----------------3-|-0--X--0--0--0--2-|-3--X--3--3--0-|------------------|     

e|------------|------------------|---------------|------------------|           
B|-------3----|------------------|---------------|------------------|           
G|-5--5--2----|------------------|---------------|-2--X--2--2--2--X-|           
D|-5--5--0--5-|-2--X--2--2--2----|-5--X--5--5----|-2--X--2--2--2--X-|           
A|-3--3-----5-|-2--X--2--2--2----|-5--X--5--5----|-0--X--0--0--0--X-|           
E|----------3-|-0--X--0--0--0--2-|-3--X--3--3--0-|------------------|           

e|------------|------------------|---------------|------------------|           
B|-------3----|------------------|---------------|------------------|           
G|-5--5--2----|------------------|---------------|-2--X--2--2--2--X-|           
D|-5--5--0--5-|-2--X--2--2--2----|-5--X--5--5----|-2--X--2--2--2--X-|           
A|-3--3-----5-|-2--X--2--2--2----|-5--X--5--5----|-0--X--0--0--0--X-|           
E|----------3-|-0--X--0--0--0--2-|-3--X--3--3--0-|------------------|           

e|------------------|------------------|---------|---|------|---|---|---|---|---|
B|------------------|------------------|---------|---|----3-|---|---|---|---|---|
G|-9--7-------------|------------------|---------|-2-|-5--2-|---|---|---|---|---|
D|-9--7--9--8--7--5-|-2--X--2--2--2----|-5--5--5-|-2-|-5--0-|-2-|---|---|---|---|
A|-7--5--9--8--7--5-|-2--X--2--2--2----|-5--5--5-|-0-|-3----|-2-|---|---|---|---|
E|-------7--6--5--3-|-0--X--0--0--0--2-|-3--3--3-|---|------|-0-|---|---|---|---|

There is a better way to learn guitar.

FATpick is the tab player that listens.

Choose a song from our library or import custom songs.

FATpick will render any guitar tab as a scrolling “piano-roll” that indicates which and when notes should be played.

Songs can be synchronized with original recordings or configurable backing-tracks.

Get real-time feedback on timing and accuracy as you play along with any electric or acoustic guitar.

Slow down to nail a particular passage, or speed up to improve your mastery.

Track your progress through personal records or compete for a position on our global leaderboards.

Try FATpick for Free

Download for Mac OSX Download for Windows Download for Android Download for iOS

Early Access

I'm interested in the


FATpick for MacOS and FATpick for Windows are available to download immediately.

Download for Mac OSX Download for Windows

Pre-release versions of FATpick for other platforms are currently available to a limited audience.

 

Pre-release versions of FATpick are available to a limited audience.

During this field-testing phase FATpick is absolutely free.

Play any song from our growing library. Import custom tabs.

Works with any guitar. No extra equipment or cables needed.

No time limits.

Copyright © 2018 - 2019 FATpick LLC.