Sweet Child O’ Mine

by

Guns N’ Roses


from the album

Appetite for Destruction

Cover art for Appetite for Destruction by Guns N’ Roses featuring the song Sweet Child O’ Mine

Steel Guitar Tablature

Standard (E A D G B E) Tuning
e|---|---|---|---|---|---|---|---|-2-|---|-0-|---|-3-|---|-2-|---|-2--2--2--2-| 
B|---|---|---|---|---|---|---|---|-3-|---|-3-|---|-0-|---|-3-|---|-3--3--3--3-| 
G|---|---|---|---|---|---|---|---|-2-|---|-0-|---|-0-|---|-2-|---|-2--2--2--2-| 
D|---|---|---|---|---|---|---|---|-0-|---|-2-|---|-0-|---|-0-|---|-0--0--0--0-| 
A|---|---|---|---|---|---|---|---|---|---|-3-|---|-2-|---|---|---|------------| 
E|---|---|---|---|---|---|---|---|---|---|---|---|-3-|---|---|---|------------| 

e|-2--2--3--2--0-|-0--0--0--0-|-0--0--3--2--0-|------------|-------3--2--0-|    
B|-3-------------|-1--1--1--1-|-1-------------|-3--3--3--3-|-3--3----------|    
G|-2-------------|-0--0--0--0-|-0-------------|-0--0--0--0-|-0-------------|    
D|-0-------------|-2--2--2--2-|-2-------------|-0--0--0--0-|-0-------------|    
A|---------------|-3--3--3--3-|-3-------------|-2--2--2--2-|-2-------------|    
E|---------------|------------|---------------|-3--3--3--3-|-3-------------|    

e|-2--2--2--2-|-2--2--3--2-|-10-|---|--8-|-10--8----|-3-|-3--------3-----3-|    
B|-3--3--3--3-|-3--3--3--3-|-10-|---|--8-|--------8-|-3-|----3--------3----|    
G|-2--2--2--2-|-2--2--2--2-|-11-|---|--9-|----------|-0-|-------0----------|    
D|-0--0--0--0-|-0--0--0--0-|-12-|---|-10-|----------|-5-|------------------|    
A|------------|------------|----|---|----|----------|---|------------------|    
E|------------|------------|----|---|----|----------|---|------------------|    

e|-2--2-|-3--2-|----------0--------2-|----------2--3--2--0----|                 
B|-3--3-|-3--3-|----3--------3-------|-3--------------------3-|                 
G|-2--2-|-2--2-|-------2--------2----|----2-------------------|                 
D|-0--0-|-0--0-|-0-------------------|-------0----------------|                 
A|------|------|---------------------|------------------------|                 
E|------|------|---------------------|------------------------|                 

e|-------------------0-|------------------|---------------------|               
B|----------3----------|-3-----3----------|-------3--------3----|               
G|----0--------0-------|----------0-----0-|-2--4-----2--4-----0-|               
D|-------2--------2----|------------------|---------------------|               
A|-3-------------------|----3--------3----|---------------------|               
E|---------------------|------------------|---------------------|               

e|-0-----------0-------|-------------------3-|-------2-|------------|------|    
B|----3-----3-----3----|----3--------3-----3-|-3-----3-|------------|------|    
G|-------0-----------0-|-------2--------2--2-|----2--2-|-2--2--2--4-|-5--5-|    
D|---------------------|-0--------0----------|-------0-|-2--2--2--4-|-5--5-|    
A|---------------------|---------------------|---------|-0--0--0--2-|-3--3-|    
E|---------------------|---------------------|---------|------------|------|    

e|------------|-3--2--0--2-|------------|------|-2-|-2--2--2--2-|-2--2--2--2-|  
B|-3--3--3--3-|-3--3--3--3-|------------|------|-3-|-3--3--3--3-|-3--3--3--3-|  
G|-2--2--2--2-|-2--2--2--2-|-2--2--2--4-|-5--5-|-2-|-2--2--2--2-|-2--2--2--2-|  
D|-0--0--0--0-|-0--0--0--0-|-2--2--2--4-|-5--5-|-0-|-0--0--0--0-|-0--0--0--0-|  
A|------------|------------|-0--0--0--2-|-3--3-|---|------------|------------|  
E|------------|------------|------------|------|---|------------|------------|  

e|-2--2--3--2--0-|-0--0--0--0-|-0--0--3--2--0-|------------|-------3--2--0-|    
B|-3-------------|-1--1--1--1-|-1-------------|-3--3--3--3-|-3--3----------|    
G|-2-------------|-0--0--0--0-|-0-------------|-0--0--0--0-|-0-------------|    
D|-0-------------|-2--2--2--2-|-2-------------|-0--0--0--0-|-0-------------|    
A|---------------|-3--3--3--3-|-3-------------|-2--2--2--2-|-2-------------|    
E|---------------|------------|---------------|-3--3--3--3-|-3-------------|    

e|-2--2--2--2-|-2--2--3--2-|-10-|---|--8-|-10--8----|-3-|-3--------3-----3-|    
B|-3--3--3--3-|-3--3--3--3-|-10-|---|--8-|--------8-|-3-|----3--------3----|    
G|-2--2--2--2-|-2--2--2--2-|-11-|---|--9-|----------|-0-|-------0----------|    
D|-0--0--0--0-|-0--0--0--0-|-12-|---|-10-|----------|-5-|------------------|    
A|------------|------------|----|---|----|----------|---|------------------|    
E|------------|------------|----|---|----|----------|---|------------------|    

e|-2--2-|-3--2-|----------0--------2-|----------2--3--2--0----|                 
B|-3--3-|-3--3-|----3--------3-------|-3--------------------3-|                 
G|-2--2-|-2--2-|-------2--------2----|----2-------------------|                 
D|-0--0-|-0--0-|-0-------------------|-------0----------------|                 
A|------|------|---------------------|------------------------|                 
E|------|------|---------------------|------------------------|                 

e|-------------------0-|------------------|---------------------|               
B|----------3----------|-3-----3----------|-------3--------3----|               
G|----0--------0-------|----------0-----0-|-2--4-----2--4-----0-|               
D|-------2--------2----|------------------|---------------------|               
A|-3-------------------|----3--------3----|---------------------|               
E|---------------------|------------------|---------------------|               

e|-0-----------0-------|-------------------3-|-------2-|------------|------|    
B|----3-----3-----3----|----3--------3-----3-|-3-----3-|------------|------|    
G|-------0-----------0-|-------2--------2--2-|----2--2-|-2--2--2--4-|-5--5-|    
D|---------------------|-0--------0----------|-------0-|-2--2--2--4-|-5--5-|    
A|---------------------|---------------------|---------|-0--0--0--2-|-3--3-|    
E|---------------------|---------------------|---------|------------|------|    

e|------------|-3--2--0--2-|------------|------|-2-|-2--2--2--2-|-2--2--2--2-|  
B|-3--3--3--3-|-3--3--3--3-|------------|------|-3-|-3--3--3--3-|-3--3--3--3-|  
G|-2--2--2--2-|-2--2--2--2-|-2--2--2--4-|-5--5-|-2-|-2--2--2--2-|-2--2--2--2-|  
D|-0--0--0--0-|-0--0--0--0-|-2--2--2--4-|-5--5-|-0-|-0--0--0--0-|-0--0--0--0-|  
A|------------|------------|-0--0--0--2-|-3--3-|---|------------|------------|  
E|------------|------------|------------|------|---|------------|------------|  

e|-2--2--3--2--0-|-0--0--0--0-|-0--0--3--2--0-|------------|-------3--2--0-|    
B|-3-------------|-1--1--1--1-|-1-------------|-3--3--3--3-|-3--3----------|    
G|-2-------------|-0--0--0--0-|-0-------------|-0--0--0--0-|-0-------------|    
D|-0-------------|-2--2--2--2-|-2-------------|-0--0--0--0-|-0-------------|    
A|---------------|-3--3--3--3-|-3-------------|-2--2--2--2-|-2-------------|    
E|---------------|------------|---------------|-3--3--3--3-|-3-------------|    

e|-2--2--2--2-|-2--2--3--2-|-2--2--2--2-|-2--2--3--2--0-|-0--0--0--0-|          
B|-3--3--3--3-|-3--3--3--3-|-3--3--3--3-|-3-------------|-1--1--1--1-|          
G|-2--2--2--2-|-2--2--2--2-|-2--2--2--2-|-2-------------|-0--0--0--0-|          
D|-0--0--0--0-|-0--0--0--0-|-0--0--0--0-|-0-------------|-2--2--2--2-|          
A|------------|------------|------------|---------------|-3--3--3--3-|          
E|------------|------------|------------|---------------|------------|          

e|-0--0--3--2--0-|------------|-------3--2--0-|-2--2--2--2-|-2--2--3--2-|       
B|-1-------------|-3--3--3--3-|-3--3----------|-3--3--3--3-|-3--3--3--3-|       
G|-0-------------|-0--0--0--0-|-0-------------|-2--2--2--2-|-2--2--2--2-|       
D|-2-------------|-0--0--0--0-|-0-------------|-0--0--0--0-|-0--0--0--0-|       
A|-3-------------|-2--2--2--2-|-2-------------|------------|------------|       
E|---------------|-3--3--3--3-|-3-------------|------------|------------|       

e|------------|------|-2--2----|---------------------|------------|---------|-2-|
B|------------|------|-3--3--7-|-7-------------------|------------|---------|-3-|
G|-2--2--2--4-|-5--5-|-2--2----|----7----------------|-2--2--2--4-|-5--5--5-|-2-|
D|-2--2--2--4-|-5--5-|-0--0----|-------7--5--4--0----|-2--2--2--4-|-5--5--5-|-0-|
A|-0--0--0--2-|-3--3-|---------|-------------------3-|-0--0--0--2-|-3--3--3-|---|
E|------------|------|---------|---------------------|------------|---------|---|

e|-2--2--2--2--2--2-|------------|------|-2--2--2--2--2-|-3--2--0--2--2--2--2-| 
B|-3--3--3--3--3--3-|------------|------|-3--3--3--3--3-|-3--3--3--3--3--3--3-| 
G|-2--2--2--2--2--2-|-2--2--2--4-|-5--5-|-2--2--2--2--2-|-2--2--2--2--2--2--2-| 
D|-0--0--0--0--0--0-|-2--2--2--4-|-5--5-|-0--0--0--0--0-|-0--0--0--0--0--0--0-| 
A|------------------|-0--0--0--2-|-3--3-|---------------|---------------------| 
E|------------------|------------|------|---------------|---------------------| 

e|------------|---------|------------------------|------------------|           
B|------------|---------|------------------------|------------------|           
G|-2--2--2--4-|-5--5--5-|-7--7--7--7--7--7--7--7-|-7--7--7--7--7--8-|           
D|-2--2--2--4-|-5--5--5-|-7--7--7--7--7--7--7--7-|-7--7--7--7--7--8-|           
A|-0--0--0--2-|-3--3--3-|-5--5--5--5--5--5--5--5-|-5--5--5--5--5--6-|           
E|------------|---------|------------------------|------------------|           

e|----------0-------------|----------3-------------|----------2-------------|   
B|-------0-----0----------|-------1-----1----------|-------0-----0----------|   
G|----0-----------0-----0-|----0-----------0-----0-|----2-----------2-----2-|   
D|-------------------2----|-2-----------------2----|-1-----------------1----|   
A|------------------------|------------------------|------------------------|   
E|-0----------------------|------------------------|------------------------|   

e|----------0-------------|----------0-------------|----------3-------------|   
B|-------------1----------|-------0-----0----------|-------1-----1----------|   
G|-------2--------2-------|----0-----------0-----0-|----0-----------0-----0-|   
D|----2-------------------|-------------------2----|-2-----------------2----|   
A|-0----------------------|------------------------|------------------------|   
E|-------------------3--2-|-0----------------------|------------------------|   

e|----------2-------------|----------0-------------|----------0-------------|   
B|-------0-----0----------|-------------1----------|-------0-----0----------|   
G|----2-----------2-----2-|-------2--------2-------|----0-----------0-----0-|   
D|-1-----------------1----|----2-------------------|-------------------2----|   
A|------------------------|-0----------------------|------------------------|   
E|------------------------|-------------------3--2-|-0----------------------|   

e|----------3-------------|----------2-------------|----------0-------------|   
B|-------1-----1----------|-------0-----0----------|-------------1----------|   
G|----0-----------0-----0-|----2-----------2-----2-|-------2--------2-------|   
D|-2-----------------2----|-1-----------------1----|----2-------------------|   
A|------------------------|------------------------|-0----------------------|   
E|------------------------|------------------------|-------------------3--2-|   

e|----------0-------------|----------3-------------|----------2-------------|   
B|-------0-----0----------|-------1-----1----------|-------0-----0----------|   
G|----0-----------0-----0-|----0-----------0-----0-|----2-----------2-----2-|   
D|-------------------2----|-2-----------------2----|-1-----------------1----|   
A|------------------------|------------------------|------------------------|   
E|-0----------------------|------------------------|------------------------|   

e|----------0-------------|----------0-------------|------------|------------|  
B|-------------1----------|-------------1----------|-0--0-------|-3--3--3--3-|  
G|-------2--------2-----2-|-------2--------2-------|-0--0-------|-0--0--0--0-|  
D|----2--------------2----|----2-------------------|-2--2-------|-0--0--0--0-|  
A|-0----------------------|-0----------------------|-2--2-------|-X--X--X--X-|  
E|------------------------|-------------------3--2-|-------0--2-|-3--3--3--3-|  

e|------------|------------------|------------|------------|------------|       
B|------------|-------------3--3-|-0--0-------|-3--3--3--3-|------------|       
G|-2--2--2--2-|-5--5--5--5--2--0-|-0--0-------|-0--0--0--0-|-2--2--2--2-|       
D|-2--2--2--2-|-5--5--5--5--0--0-|-2--2-------|-0--0--0--0-|-2--2--2--2-|       
A|-0--0--0--0-|-3--3--3--3-----X-|-2--2-------|-X--X--X--X-|-0--0--0--0-|       
E|------------|----------------3-|-------0--2-|-3--3--3--3-|------------|       

e|------------------|------------|------------|------------|------------------| 
B|-------------3--3-|-0--0-------|-3--3--3--3-|------------|-------------3--3-| 
G|-5--5--5--5--2--0-|-0--0-------|-0--0--0--0-|-2--2--2--2-|-5--5--5--5--2--0-| 
D|-5--5--5--5--0--0-|-2--2-------|-0--0--0--0-|-2--2--2--2-|-5--5--5--5--0--0-| 
A|-3--3--3--3-----X-|-2--2-------|-X--X--X--X-|-0--0--0--0-|-3--3--3--3-----X-| 
E|----------------3-|-------0--2-|-3--3--3--3-|------------|----------------3-| 

e|------------|------------|------------|------------------|---|---|---|---|---|
B|-0--0-------|-3--3--3--3-|------------|-------------3--3-|---|---|---|---|---|
G|-0--0-------|-0--0--0--0-|-2--2--2--2-|-5--5--5--5--2--0-|---|---|---|---|---|
D|-2--2-------|-0--0--0--0-|-2--2--2--2-|-5--5--5--5--0--0-|---|---|---|---|---|
A|-2--2-------|-X--X--X--X-|-0--0--0--0-|-3--3--3--3-----X-|---|---|---|---|---|
E|-------0--2-|-3--3--3--3-|------------|----------------3-|---|---|---|---|---|

e|---|---|---|---|---|---|---|---|---|---|---|------------------|---------------|
B|---|---|---|---|---|---|---|---|---|---|---|------------------|---------------|
G|---|---|---|---|---|---|---|---|---|---|---|------------------|---------------|
D|---|---|---|---|---|---|---|---|---|---|---|-2--X--2--2--2----|-5--X--5--5----|
A|---|---|---|---|---|---|---|---|---|---|---|-2--X--2--2--2----|-5--X--5--5----|
E|---|---|---|---|---|---|---|---|---|---|---|-0--X--0--0--0--2-|-3--X--3--3--0-|

e|------------------|------------|------------------|---------------|           
B|------------------|-------3----|------------------|---------------|           
G|-2--X--2--2--2--X-|-5--5--2----|------------------|---------------|           
D|-2--X--2--2--2--X-|-5--5--0--5-|-2--X--2--2--2----|-5--X--5--5----|           
A|-0--X--0--0--0--X-|-3--3-----5-|-2--X--2--2--2----|-5--X--5--5----|           
E|------------------|----------3-|-0--X--0--0--0--2-|-3--X--3--3--0-|           

e|------------------|------------|------------------|---------------|           
B|------------------|-------3----|------------------|---------------|           
G|-2--X--2--2--2--X-|-5--5--2----|------------------|---------------|           
D|-2--X--2--2--2--X-|-5--5--0--5-|-2--X--2--2--2----|-5--X--5--5----|           
A|-0--X--0--0--0--X-|-3--3-----5-|-2--X--2--2--2----|-5--X--5--5----|           
E|------------------|----------3-|-0--X--0--0--0--2-|-3--X--3--3--0-|           

e|------------------|------------------|------------------|---------|---|------|
B|------------------|------------------|------------------|---------|---|------|
G|-2--X--2--2--2--X-|-9--7-------------|------------------|---------|-2-|-5--7-|
D|-2--X--2--2--2--X-|-9--7--9--8--7--5-|-2--X--2--2--2----|-5--5--5-|-2-|-5--7-|
A|-0--X--0--0--0--X-|-7--5--9--8--7--5-|-2--X--2--2--2----|-5--5--5-|-0-|-3--5-|
E|------------------|-------7--6--5--3-|-0--X--0--0--0--2-|-3--3--3-|---|------|

e|---|---|---|---|---|------------|---|---|                                     
B|---|---|---|---|---|----------9-|---|---|                                     
G|-9-|---|---|---|---|-------9----|---|---|                                     
D|-9-|---|---|---|---|----9-------|---|---|                                     
A|-7-|---|---|---|---|-7----------|---|---|                                     
E|---|---|---|---|---|------------|---|---|                                     

There is a better way to learn guitar.

FATpick is the tab player that listens.

Choose a song from our library or import custom songs.

FATpick will render any guitar tab as a scrolling “piano-roll” that indicates which and when notes should be played.

Songs can be synchronized with original recordings or configurable backing-tracks.

Get real-time feedback on timing and accuracy as you play along with any electric or acoustic guitar.

Slow down to nail a particular passage, or speed up to improve your mastery.

Track your progress through personal records or compete for a position on our global leaderboards.

Try FATpick for Free

Download for Mac OSX Download for Windows Download for Android Download for iOS

Early Access

I'm interested in the


FATpick for MacOS and FATpick for Windows are available to download immediately.

Download for Mac OSX Download for Windows

Pre-release versions of FATpick for other platforms are currently available to a limited audience.

 

Pre-release versions of FATpick are available to a limited audience.

During this field-testing phase FATpick is absolutely free.

Play any song from our growing library. Import custom tabs.

Works with any guitar. No extra equipment or cables needed.

No time limits.

Copyright © 2018 - 2019 FATpick LLC.