Come As You Are

by

Nirvana


from the album

Nevermind

Cover art for Nevermind by Nirvana featuring the song Come As You Are

(Kurt Cobain) Guitar Tablature

D G C F A D Tuning
d|---------|---------------------|---------------------|---------------------|  
A|---------|---------------------|---------------------|---------------------|  
F|---------|---------------------|---------------------|---------------------|  
C|---------|---------------------|---------------------|---------------------|  
G|---------|----0-----0----------|----2--------2-------|----0-----0----------|  
D|-0--0--1-|-2-----2-----2--2--1-|-0-----0--0-----0--1-|-2-----2-----2--2--1-|  

d|---------------------|---------------------|---------------------|            
A|---------------------|---------------------|---------------------|            
F|---------------------|---------------------|---------------------|            
C|---------------------|---------------------|---------------------|            
G|----2--------2-------|----0-----0----------|----2--------2-------|            
D|-0-----0--0-----0--1-|-2-----2-----2--2--1-|-0-----0--0-----0--1-|            

d|---------------------|---------------------|---------------------|            
A|---------------------|---------------------|---------------------|            
F|---------------------|---------------------|---------------------|            
C|---------------------|---------------------|---------------------|            
G|----0-----0----------|----2--------2-------|----0-----0----------|            
D|-2-----2-----2--2--1-|-0-----0--0-----0--1-|-2-----2-----2--2--1-|            

d|---------------------|---------------------|---------------------|            
A|---------------------|---------------------|---------------------|            
F|---------------------|---------------------|---------------------|            
C|---------------------|---------------------|---------------------|            
G|----2--------2-------|----0-----0----------|----2--------2-------|            
D|-0-----0--0-----0--1-|-2-----2-----2--2--1-|-0-----0--0-----0--1-|            

d|---------------------|---------------------|---------------------|            
A|---------------------|---------------------|---------------------|            
F|---------------------|---------------------|---------------------|            
C|---------------------|---------------------|---------------------|            
G|----0-----0----------|----2--------2-------|----0-----0----------|            
D|-2-----2-----2--2--1-|-0-----0--0-----0--1-|-2-----2-----2--2--1-|            

d|---------------------|---------------------|---------------------|            
A|---------------------|---------------------|---------------------|            
F|---------------------|---------------------|---------------------|            
C|---------------------|---------------------|---------------------|            
G|----2--------2-------|----0-----0----------|----2--------2-------|            
D|-0-----0--0-----0--1-|-2-----2-----2--2--1-|-0-----0--0-----0--1-|            

d|---------------------|---------------------|---------------------|            
A|---------------------|---------------------|---------------------|            
F|---------------------|---------------------|---------------------|            
C|---------------------|---------------------|---------------------|            
G|----0-----0----------|----2--------2-------|----0-----0----------|            
D|-2-----2-----2--2--1-|-0-----0--0-----0--1-|-2-----2-----2--2--1-|            

d|---------------------|---------------------|-------------0-------|----2-------|
A|---------------------|---------------------|----------0--0--0--0-|----2--2----|
F|---------------------|---------------------|----------1--1--1--1-|----4--4--0-|
C|---------------------|---------------------|----------2-----2--2-|-4-----4--0-|
G|----2--------2-------|----0-----0----------|----2----------------|------------|
D|-0-----0--0-----0--1-|-2-----2-----2--2--1-|-0-----0-------------|-2----------|

d|------------------------|----2-------|---------------------|----2-------|     
A|------------------------|----2--2----|---------------------|----2--2----|     
F|-2--2--2--2--2--2--2--2-|----4--4--0-|-2--2--2--2--2--2--0-|----4--4--0-|     
C|-2-----2-----2-----2----|-4-----4--0-|-2-----2-----2--2--0-|-4-----4--0-|     
G|-0-----0-----0-----0----|------------|-0-----0-----0--0----|------------|     
D|------------------------|-2----------|---------------------|-2----------|     

d|------------------------|----2-------|---------------------|                  
A|------------------------|----2--2----|---------------------|                  
F|-2--2--2--2--2--2--2--2-|----4--4--0-|-2--2--2--2--2--2--0-|                  
C|-2-----2-----2-----2----|-4-----4--0-|-2-----2-----2--2--0-|                  
G|-0-----0-----0-----0----|------------|-0-----0-----0--0----|                  
D|------------------------|-2----------|---------------------|                  

d|---------------------|---------------------|---------------------|            
A|---------------------|---------------------|---------------------|            
F|---------------------|---------------------|---------------------|            
C|---------------------|---------------------|---------------------|            
G|----0-----0----------|----2--------2-------|----0-----0----------|            
D|-2-----2-----2--2--1-|-0-----0--0-----0--1-|-2-----2-----2--2--1-|            

d|---------------------|---------------------|---------------------|            
A|---------------------|---------------------|---------------------|            
F|---------------------|---------------------|---------------------|            
C|---------------------|---------------------|---------------------|            
G|----2--------2-------|----0-----0----------|----2--------2-------|            
D|-0-----0--0-----0--1-|-2-----2-----2--2--1-|-0-----0--0-----0--1-|            

d|---------------------|-------------0-------|----2-------|                     
A|---------------------|----------0--0--0--0-|----2--2----|                     
F|---------------------|----------1--1--1--1-|----4--4--0-|                     
C|---------------------|----------2-----2--2-|-4-----4--0-|                     
G|----0-----0----------|----2----------------|------------|                     
D|-2-----2-----2--2--1-|-0-----0-------------|-2----------|                     

d|------------------------|----2-------|---------------------|----2-------|     
A|------------------------|----2--2----|---------------------|----2--2----|     
F|-2--2--2--2--2--2--2--2-|----4--4--0-|-2--2--2--2--2--2--0-|----4--4--0-|     
C|-2-----2-----2-----2----|-4-----4--0-|-2-----2-----2--2--0-|-4-----4--0-|     
G|-0-----0-----0-----0----|------------|-0-----0-----0--0----|------------|     
D|------------------------|-2----------|---------------------|-2----------|     

d|------------------------|----2-------|------------------------|---------|     
A|------------------------|----2--2----|------------------------|---------|     
F|-2--2--2--2--2--2--2--2-|----4--4--0-|-2--2--2--2--2--2--2--2-|-4--4--4-|     
C|-2-----2-----2-----2----|-4-----4--0-|-2--2--2--2--2--2--2--2-|-4--4--4-|     
G|-0-----0-----0-----0----|------------|-0--0--0--0--0--0--0--0-|-2--2--2-|     
D|------------------------|-2----------|------------------------|---------|     

d|---------------|---------------|------------------|------------------|        
A|---------------|---------------|------------------|------------------|        
F|-7--7--7--7--7-|-4--4--4--4--4-|-7--7--7--7--7--7-|-4--4--4--4--4--4-|        
C|-7--7--7--7--7-|-4--4--4--4--4-|-7--7--7--7--7--7-|-4--4--4--4--4--4-|        
G|-5--5--5--5--5-|-2--2--2--2--2-|-5--5--5--5--5--5-|-2--2--2--2--2--2-|        
D|---------------|---------------|------------------|------------------|        

d|------------------|------------------|---------------------|                  
A|------------------|------------------|---------------------|                  
F|-7--7--7--7--7--7-|-4--4--4--4--4--4-|-7--7--7--7----------|                  
C|-7--7--7--7--7--7-|-4--4--4--4--4--4-|-7--7--7--7----------|                  
G|-5--5--5--5--5--5-|-2--2--2--2--2--2-|-5--5--5--5----------|                  
D|------------------|------------------|-------------0--0--1-|                  

d|---------------------|---------------------|---------------------|            
A|---------------------|---------------------|---------------------|            
F|---------------------|---------------------|---------------------|            
C|---------------------|---------------------|---------------------|            
G|----0-----0----------|----2--------2-------|----0-----0----------|            
D|-2-----2-----2--2--1-|-0-----0--0-----0--1-|-2-----2-----2--2--1-|            

d|---------------------|---------------------|---------------------|            
A|---------------------|---------------------|---------------------|            
F|---------------------|---------------------|---------------------|            
C|---------------------|---------------------|---------------------|            
G|----2--------2-------|----0-----0----------|----2--------2-------|            
D|-0-----0--0-----0--1-|-2-----2-----2--2--1-|-0-----0--0-----0--1-|            

d|---------------------|---------------------|---------------------|            
A|---------------------|---------------------|---------------------|            
F|---------------------|---------------------|---------------------|            
C|---------------------|---------------------|---------------------|            
G|----0-----0----------|----2--------2-------|----0-----0----------|            
D|-2-----2-----2--2--1-|-0-----0--0-----0--1-|-2-----2-----2--2--1-|            

d|---------------------|---------------------|---------------------|            
A|---------------------|---------------------|---------------------|            
F|---------------------|---------------------|---------------------|            
C|---------------------|---------------------|---------------------|            
G|----2--------2-------|----0-----0----------|----2--------2-------|            
D|-0-----0--0-----0--1-|-2-----2-----2--2--1-|-0-----0--0-----0--1-|            

d|---------------------|---------------------|---------------------|            
A|---------------------|---------------------|---------------------|            
F|---------------------|---------------------|---------------------|            
C|---------------------|---------------------|---------------------|            
G|----0-----0----------|----2--------2-------|----0-----0----------|            
D|-2-----2-----2--2--1-|-0-----0--0-----0--1-|-2-----2-----2--2--1-|            

d|---------------------|---------------------|---------------------|            
A|---------------------|---------------------|---------------------|            
F|---------------------|---------------------|---------------------|            
C|---------------------|---------------------|---------------------|            
G|----2--------2-------|----0-----0----------|----2--------2-------|            
D|-0-----0--0-----0--1-|-2-----2-----2--2--1-|-0-----0--0-----0--1-|            

d|---------------------|-------------0-------|----2-------|                     
A|---------------------|----------0--0--0--0-|----2--2----|                     
F|---------------------|----------1--1--1--1-|----4--4--0-|                     
C|---------------------|----------2-----2--2-|-4-----4--0-|                     
G|----0-----0----------|----2----------------|------------|                     
D|-2-----2-----2--2--1-|-0-----0-------------|-2----------|                     

d|------------------------|----2-------|---------------------|----2-------|     
A|------------------------|----2--2----|---------------------|----2--2----|     
F|-2--2--2--2--2--2--2--2-|----4--4--0-|-2--2--2--2--2--2--0-|----4--4--0-|     
C|-2-----2-----2-----2----|-4-----4--0-|-2-----2-----2--2--0-|-4-----4--0-|     
G|-0-----0-----0-----0----|------------|-0-----0-----0--0----|------------|     
D|------------------------|-2----------|---------------------|-2----------|     

d|------------------------|----2-------|------------------------|---------|     
A|------------------------|----2--2----|------------------------|---------|     
F|-2--2--2--2--2--2--2--2-|----4--4--0-|-2--2--2--2--2--2--2--2-|---------|     
C|-2-----2-----2-----2----|-4-----4--0-|-2--2--2--2--2--2--2--2-|-9--9--9-|     
G|-0-----0-----0-----0----|------------|-0--0--0--0--0--0--0--0-|-9--9--9-|     
D|------------------------|-2----------|------------------------|-7--7--7-|     

d|---------------|---------------|------------------|------------------|        
A|---------------|---------------|------------------|------------------|        
F|-7--7--7--7--7-|---------------|-7--7--7--7--7--7-|------------------|        
C|-7--7--7--7--7-|-9--9--9--9--9-|-7--7--7--7--7--7-|-9--9--9--9--9--9-|        
G|-5--5--5--5--5-|-9--9--9--9--9-|-5--5--5--5--5--5-|-9--9--9--9--9--9-|        
D|---------------|-7--7--7--7--7-|------------------|-7--7--7--7--7--7-|        

d|------------------|------------------|------------------|------------------|  
A|------------------|------------------|------------------|------------------|  
F|-7--7--7--7--7--7-|------------------|-7--7--7--7--7--7-|------------------|  
C|-7--7--7--7--7--7-|-9--9--9--9--9--9-|-7--7--7--7--7--7-|-9--9--9--9--9--9-|  
G|-5--5--5--5--5--5-|-9--9--9--9--9--9-|-5--5--5--5--5--5-|-9--9--9--9--9--9-|  
D|------------------|-7--7--7--7--7--7-|------------------|-7--7--7--7--7--7-|  

d|------------------|------------------|---------------------|                  
A|------------------|------------------|---------------------|                  
F|-7--7--7--7--7--7-|------------------|-7--7--7--7----------|                  
C|-7--7--7--7--7--7-|-9--9--9--9--9--9-|-7--7--7--7----------|                  
G|-5--5--5--5--5--5-|-9--9--9--9--9--9-|-5--5--5--5----------|                  
D|------------------|-7--7--7--7--7--7-|-------------0--0--1-|                  

d|---------------------|---------------------|---------------------|            
A|---------------------|---------------------|---------------------|            
F|---------------------|---------------------|---------------------|            
C|---------------------|---------------------|---------------------|            
G|----0-----0----------|----2--------2-------|----0-----0----------|            
D|-2-----2-----2--2--1-|-0-----0--0-----0--1-|-2-----2-----2--2--1-|            

d|---------------------|---------------------|---------------------|            
A|---------------------|---------------------|---------------------|            
F|---------------------|---------------------|---------------------|            
C|---------------------|---------------------|---------------------|            
G|----2--------2-------|----0-----0----------|----2--------2-------|            
D|-0-----0--0-----0--1-|-2-----2-----2--2--1-|-0-----0--0-----0--1-|            

d|---------------------|---------------------|-0-|---|---|                      
A|---------------------|---------------------|-0-|---|---|                      
F|---------------------|---------------------|-4-|---|---|                      
C|---------------------|---------------------|-4-|---|---|                      
G|----0-----0----------|----2--------2-------|-4-|---|---|                      
D|-2-----2-----2--2--1-|-0-----0--0-----0--1-|-2-|---|---|

There is a better way to learn guitar.

FATpick is the tab player that listens.

Choose a song from our library or import custom songs.

FATpick will render any guitar tab as a scrolling “piano-roll” that indicates which and when notes should be played.

Songs can be synchronized with original recordings or configurable backing-tracks.

Get real-time feedback on timing and accuracy as you play along with any electric or acoustic guitar.

Slow down to nail a particular passage, or speed up to improve your mastery.

Track your progress through personal records or compete for a position on our global leaderboards.

Try FATpick for Free

Download for Mac OSX Download for Windows Download for Android Download for iOS

Early Access

I'm interested in the


FATpick for MacOS and FATpick for Windows are available to download immediately.

Download for Mac OSX Download for Windows

Pre-release versions of FATpick for other platforms are currently available to a limited audience.

 

Pre-release versions of FATpick are available to a limited audience.

During this field-testing phase FATpick is absolutely free.

Play any song from our growing library. Import custom tabs.

Works with any guitar. No extra equipment or cables needed.

No time limits.

Copyright © 2018 - 2019 FATpick LLC.