Wonderwall

by

Oasis


from the album

(What's the Story) Morning Glory?

Cover art for (What's the Story) Morning Glory? by Oasis featuring the song Wonderwall

Guitar (Rhythm) Tablature

Standard (E A D G B E) Tuning
e|-3-----3-----3-----3-----3-----3-|----3-----3-----3--3-----3----------|       
B|-3-----3-----3-----3-----3-----3-|----3-----3-----3--3-----3----------|       
G|-0-----0-----0-----0-----0-----0-|-2--2--2--2--0--2--2--0--2--2--0--0-|       
D|-2-----2-----------0-----0-------|-0-----0--0--0--2--2--2--2--2--2--0-|       
A|-2--2--2--2-----2-----2--2--2----|----------------0--0--0--0--0--0--0-|       
E|-0--0--0--0-----3-----3--3--3----|------------------------------------|       

e|-3-----3-----3-----3-----3-----3-|----3-----3-----3--3-----3----------|       
B|-3-----3-----3-----3-----3-----3-|----3-----3-----3--3-----3----------|       
G|-0-----0-----0-----0-----0-----0-|-2--2--2--2--0--2--2--0--2--2--0--0-|       
D|-2-----2-----------------0-------|-0-----0--0--0--2--2--2--2--2--2--0-|       
A|-2--2--2--2-----2-----2--2--2----|----------------0--0--0--0--0--0--0-|       
E|-0--0--0--0-----3-----3--3--3----|------------------------------------|       

e|-3-----3-----3-----3-----3-----3-|----3-----3-----3--3-----3----------|       
B|-3-----3-----3-----3-----3-----3-|----3-----3-----3--3-----3----------|       
G|-0-----0-----0-----0-----0-----0-|-2--2--2--2--0--2--2--0--2--2--0--0-|       
D|-2-----2-----------------0-------|-0-----0--0--0--2--2--2--2--2--2--0-|       
A|-2--2--2--2-----2-----2--2--2----|----------------0--0--0--0--0--0--0-|       
E|-0--0--0--0-----3-----3--3--3----|------------------------------------|       

e|-3-----3-----3-----3-----3-----3-|----3-----3-----3--3-----3----------|       
B|-3-----3-----3-----3-----3-----3-|----3-----3-----3--3-----3----------|       
G|-0-----0-----0-----0-----0-----0-|-2--2--2--2--0--2--2--0--2--2--0--0-|       
D|-2-----2-----------------0-------|-0-----0--0--0--2--2--2--2--2--2--0-|       
A|-2--2--2--2-----2-----2--2--2----|----------------0--0--0--0--0--0--0-|       
E|-0--0--0--0-----3-----3--3--3----|------------------------------------|       

e|-3-----3-----3-----3-----3-----3-|----3-----3-----3--3-----3----------|       
B|-3-----3-----3-----3-----3-----3-|----3-----3-----3--3-----3----------|       
G|-0-----0-----0-----0-----0-----0-|-2--2--2--2--0--2--2--0--2--2--0--0-|       
D|-2-----2-----------------0-------|-0-----0--0--0--2--2--2--2--2--2--0-|       
A|-2--2--2--2-----2-----2--2--2----|----------------0--0--0--0--0--0--0-|       
E|-0--0--0--0-----3-----3--3--3----|------------------------------------|       

e|-3-----3-----3-----3-----3-----3-|----3-----3-----3--3-----3----------|       
B|-3-----3-----3-----3-----3-----3-|----3-----3-----3--3-----3----------|       
G|-0-----0-----0-----0-----0-----0-|-2--2--2--2--0--2--2--0--2--2--0--0-|       
D|-2-----2-----------------0-------|-0-----0--0--0--2--2--2--2--2--2--0-|       
A|-2--2--2--2-----2-----2--2--2----|----------------0--0--0--0--0--0--0-|       
E|-0--0--0--0-----3-----3--3--3----|------------------------------------|       

e|-3-----3-----3-----3-----3-----3-|----3-----3-----3--3-----3----------|       
B|-3-----3-----3-----3-----3-----3-|----3-----3-----3--3-----3----------|       
G|-0-----0-----0-----0-----0-----0-|-2--2--2--2--0--2--2--0--2--2--0--0-|       
D|-2-----2-----------------0-------|-0-----0--0--0--2--2--2--2--2--2--0-|       
A|-2--2--2--2-----2-----2--2--2----|----------------0--0--0--0--0--0--0-|       
E|-0--0--0--0-----3-----3--3--3----|------------------------------------|       

e|-3-----3-----3--3-----3--3--3-|-3-----3--3-----3--3-----3----------|          
B|-3-----3-----3--3-----3--3--3-|-3-----3--3-----3--3-----3----------|          
G|-0-----0-----2--0--2--2--2--0-|-2--0--2--2--0--2--2--0--2--2--0--0-|          
D|-2--2--2--2--0-----0--0--0----|-2--2--2-----2--2--2--2--2--2--2--0-|          
A|-3--3--3--3-------------------|-0--0--0-----0--0--0--0--0--0--0--0-|          
E|------------------------------|------------------------------------|          

e|-3-----3-----3-----3-----3-----3-|----3-----3-----3--3-----3----------|       
B|-3-----3-----3-----3-----3-----3-|----3-----3-----3--3-----3----------|       
G|-0-----0-----0-----0-----0-----0-|-2--2--2--2--0--2--2--0--2--2--0--0-|       
D|-2-----2-----------------0-------|-0-----0--0--0--2--2--2--2--2--2--0-|       
A|-2--2--2--2-----2-----2--2--2----|----------------0--0--0--0--0--0--0-|       
E|-0--0--0--0-----3-----3--3--3----|------------------------------------|       

e|-3-----3-----3-----3-----3-----3-|----3-----3-----3--3-----3----------|       
B|-3-----3-----3-----3-----3-----3-|----3-----3-----3--3-----3----------|       
G|-0-----0-----0-----0-----0-----0-|-2--2--2--2--0--2--2--0--2--2--0--0-|       
D|-2-----2-----------------0-------|-0-----0--0--0--2--2--2--2--2--2--0-|       
A|-2--2--2--2-----2-----2--2--2----|----------------0--0--0--0--0--0--0-|       
E|-0--0--0--0-----3-----3--3--3----|------------------------------------|       

e|-3-----3-----3-----3-----3-----3-|----3-----3-----3--3-----3----------|       
B|-3-----3-----3-----3-----3-----3-|----3-----3-----3--3-----3----------|       
G|-0-----0-----0-----0-----0-----0-|-2--2--2--2--0--2--2--0--2--2--0--0-|       
D|-2-----2-----------------0-------|-0-----0--0--0--2--2--2--2--2--2--0-|       
A|-2--2--2--2-----2-----2--2--2----|----------------0--0--0--0--0--0--0-|       
E|-0--0--0--0-----3-----3--3--3----|------------------------------------|       

e|-3-----3-----3-----3-----3-----3-|----3-----3-----3--3-----3----------|       
B|-3-----3-----3-----3-----3-----3-|----3-----3-----3--3-----3----------|       
G|-0-----0-----0-----0-----0-----0-|-2--2--2--2--0--2--2--0--2--2--0--0-|       
D|-2-----2-----------------0-------|-0-----0--0--0--2--2--2--2--2--2--0-|       
A|-2--2--2--2-----2-----2--2--2----|----------------0--0--0--0--0--0--0-|       
E|-0--0--0--0-----3-----3--3--3----|------------------------------------|       

e|-3-----3-----3-----3-----3--3----|-3-----3-----3-----3-----3-----3-|          
B|-3-----3-----3-----3-----3--3----|-3-----3-----3-----3-----3-----3-|          
G|-0-----0-----0--2--0--2--2--2--0-|-0-----0-----0-----0-----0-----0-|          
D|-2--2--2--2-----0-----0--0--0--0-|-2-----2-----------------2-------|          
A|-3--3--3--3--------------------0-|-2--2--2--2-----2-----2--2--2----|          
E|---------------------------------|-0--0--0--0-----0-----0--0--0----|          

e|-------3-----3-----3-----3--3----|-3-----3-----3-----3-----3-----3-|          
B|-------3-----3-----3-----3--3----|-3-----3-----3-----3-----3-----3-|          
G|-------0-----0--2--0--2--2--2--0-|-0-----0-----0-----0-----0-----0-|          
D|-2--2--2--2-----0-----0--0--0--0-|-2-----2-----------------2-------|          
A|-3--3--3--3--------------------0-|-2--2--2--2-----2-----2--2--2----|          
E|---------------------------------|-0--0--0--0-----0-----0--0--0----|          

e|-------3-----3-----3-----3--3----|-------3--------3--------3--------3-|       
B|-------3-----3-----3-----3--3----|-------3--------3--------3--------3-|       
G|-------0-----0--2--0--2--2--2--0-|-------0--------0--------0--------0-|       
D|-2--2--2--2-----0-----0--0--0--0-|-0----------------------------------|       
A|-3--3--3--3--------------------0-|-2--2-----0--0-----2--2-----2--2----|       
E|---------------------------------|-3--3-----2--2-----0--0-----3--3----|       

e|----0-----0-----0--0-----0--0-----0-|----0-----0-----0--0-----0--0-------|    
B|----3-----3-----3--3-----3--3-----3-|----3-----3-----3--3-----3--3-------|    
G|----0-----0-----0--0-----0--0-----0-|----0-----0-----0--0-----0--0-----0-|    
D|-2-----2-----2--------2--------2----|-2-----2-----2--------2--------2--0-|    
A|-0-----0-----0--------0--------0----|-0-----0-----0--------0--------0--0-|    
E|------------------------------------|------------------------------------|    

e|-3-----3-----3-----3-----3-----3-|-------3-----3-----3-----3-----3-|          
B|-3-----3-----3-----3-----3-----3-|-------3-----3-----3-----3-----3-|          
G|-0-----0-----0-----0-----0-----0-|-------0-----0-----0-----0-----0-|          
D|-2--2--2--2--------------2-------|-------0-----------------2-------|          
A|-3--3--3--3-----2-----2--2--2----|-2--2--2--2-----2-----2--2--2----|          
E|----------------0-----0--0--0----|-3--3--3--3-----0-----0--0--0----|          

e|-------3-----3-----3-----3-----3-|-------3-----3-----3-----3-----3-|          
B|-------3-----3-----3-----3-----3-|-------3-----3-----3-----3-----3-|          
G|-------0-----0-----0-----0-----0-|-------0-----0-----0-----0-----0-|          
D|-2--2--2--2--------------2-------|-------0-----------------2-------|          
A|-3--3--3--3-----2-----2--2--2----|-2--2--2--2-----2-----2--2--2----|          
E|----------------0-----0--0--0----|-3--3--3--3-----0-----0--0--0----|          

e|-------3-----3-----3-----3-----3-|-------3-----3-----3-----3-----3-|          
B|-------3-----3-----3-----3-----3-|-------3-----3-----3-----3-----3-|          
G|-------0-----0-----0-----0-----0-|-------0-----0-----0-----0-----0-|          
D|-2--2--2--2--------------2-------|-------0-----------------2-------|          
A|-3--3--3--3-----2-----2--2--2----|-2--2--2--2-----2-----2--2--2----|          
E|----------------0-----0--0--0----|-3--3--3--3-----0-----0--0--0----|          

e|-------3-----3-----3-----3-----3-|-------3--3----|---|-3--3--3--3--3-------|  
B|-------3-----3-----3-----3-----3-|-------3--3----|---|-3--3--3--3--3-------|  
G|-------0-----0-----0-----0-----0-|-------0--0----|---|-2--2--2--2--2--0--0-|  
D|-2--2--2--2--------------2-------|-------0-------|---|-2-----2--------2--0-|  
A|-3--3--3--3-----2-----2--2--2----|-2--2--2-----2-|---|-0-----0--------0--0-|  
E|----------------0-----0--0--0----|-3--3--3-----0-|---|---------------------|  

e|-3-----3-----3-----3-----3-----3-|----3-----3-----3--3-----3----------|       
B|-3-----3-----3-----3-----3-----3-|----3-----3-----3--3-----3----------|       
G|-0-----0-----0-----0-----0-----0-|-2--2--2--2--0--2--2--0--2--2--0--0-|       
D|-2-----2-----------------0-------|-0-----0--0--0--2--2--2--2--2--2--0-|       
A|-2--2--2--2-----2-----2--2--2----|----------------0--0--0--0--0--0--0-|       
E|-0--0--0--0-----3-----3--3--3----|------------------------------------|       

e|-3-----3-----3-----3-----3-----3-|----3-----3-----3--3-----3----------|       
B|-3-----3-----3-----3-----3-----3-|----3-----3-----3--3-----3----------|       
G|-0-----0-----0-----0-----0-----0-|-2--2--2--2--0--2--2--0--2--2--0--0-|       
D|-2-----2-----------------0-------|-0-----0--0--0--2--2--2--2--2--2--0-|       
A|-2--2--2--2-----2-----2--2--2----|----------------0--0--0--0--0--0--0-|       
E|-0--0--0--0-----3-----3--3--3----|------------------------------------|       

e|-3-----3-----3-----3-----3-----3-|----3-----3-----3--3-----3----------|       
B|-3-----3-----3-----3-----3-----3-|----3-----3-----3--3-----3----------|       
G|-0-----0-----0-----0-----0-----0-|-2--2--2--2--0--2--2--0--2--2--0--0-|       
D|-2-----2-----------------0-------|-0-----0--0--0--2--2--2--2--2--2--0-|       
A|-2--2--2--2-----2-----2--2--2----|----------------0--0--0--0--0--0--0-|       
E|-0--0--0--0-----3-----3--3--3----|------------------------------------|       

e|-3-----3-----3-----3-----3-----3-|----3-----3-----3--3-----3----------|       
B|-3-----3-----3-----3-----3-----3-|----3-----3-----3--3-----3----------|       
G|-0-----0-----0-----0-----0-----0-|-2--2--2--2--0--2--2--0--2--2--0--0-|       
D|-2-----2-----------------0-------|-0-----0--0--0--2--2--2--2--2--2--0-|       
A|-2--2--2--2-----2-----2--2--2----|----------------0--0--0--0--0--0--0-|       
E|-0--0--0--0-----3-----3--3--3----|------------------------------------|       

e|-3-----3-----3-----3-----3--3----|-3-----3-----3-----3-----3-----3-|          
B|-3-----3-----3-----3-----3--3----|-3-----3-----3-----3-----3-----3-|          
G|-0-----0-----0--2--0--2--2--2--0-|-0-----0-----0-----0-----0-----0-|          
D|-2--2--2--2-----0-----0--0--0--0-|-2-----2-----------------2-------|          
A|-3--3--3--3--------------------0-|-2--2--2--2-----2-----2--2--2----|          
E|---------------------------------|-0--0--0--0-----0-----0--0--0----|          

e|-------3-----3-----3-----3--3----|-3-----3-----3-----3-----3-----3-|          
B|-------3-----3-----3-----3--3----|-3-----3-----3-----3-----3-----3-|          
G|-------0-----0--2--0--2--2--2--0-|-0-----0-----0-----0-----0-----0-|          
D|-2--2--2--2-----0-----0--0--0--0-|-2-----2-----------------2-------|          
A|-3--3--3--3--------------------0-|-2--2--2--2-----2-----2--2--2----|          
E|---------------------------------|-0--0--0--0-----0-----0--0--0----|          

e|-------3-----3-----3-----3--3----|-------3--------3--------3--------3-|       
B|-------3-----3-----3-----3--3----|-------3--------3--------3--------3-|       
G|-------0-----0--2--0--2--2--2--0-|-------0--------0--------0--------0-|       
D|-2--2--2--2-----0-----0--0--0--0-|-0----------------------------------|       
A|-3--3--3--3--------------------0-|-2--2-----0--0-----2--2-----2--2----|       
E|---------------------------------|-3--3-----2--2-----0--0-----3--3----|       

e|----0-----0-----0--0-----0--0-----0-|----0-----0-----0--0-----0--0-------|    
B|----3-----3-----3--3-----3--3-----3-|----3-----3-----3--3-----3--3-------|    
G|----0-----0-----0--0-----0--0-----0-|----0-----0-----0--0-----0--0-----0-|    
D|-2-----2-----2--------2--------2----|-2-----2-----2--------2--------2--0-|    
A|-0-----0-----0--------0--------0----|-0-----0-----0--------0--------0--0-|    
E|------------------------------------|------------------------------------|    

e|-3-----3-----3-----3-----3-----3-|-------3-----3-----3-----3-----3-|          
B|-3-----3-----3-----3-----3-----3-|-------3-----3-----3-----3-----3-|          
G|-0-----0-----0-----0-----0-----0-|-------0-----0-----0-----0-----0-|          
D|-2--2--2--2--------------2-------|-------0-----------------2-------|          
A|-3--3--3--3-----2-----2--2--2----|-2--2--2--2-----2-----2--2--2----|          
E|----------------0-----0--0--0----|-3--3--3--3-----0-----0--0--0----|          

e|-------3-----3-----3-----3-----3-|-------3-----3-----3-----3-----3-|          
B|-------3-----3-----3-----3-----3-|-------3-----3-----3-----3-----3-|          
G|-------0-----0-----0-----0-----0-|-------0-----0-----0-----0-----0-|          
D|-2--2--2--2--------------2-------|-------0-----------------2-------|          
A|-3--3--3--3-----2-----2--2--2----|-2--2--2--2-----2-----2--2--2----|          
E|----------------0-----0--0--0----|-3--3--3--3-----0-----0--0--0----|          

e|-------3-----3-----3-----3-----3-|-------3-----3-----3-----3-----3-|          
B|-------3-----3-----3-----3-----3-|-------3-----3-----3-----3-----3-|          
G|-------0-----0-----0-----0-----0-|-------0-----0-----0-----0-----0-|          
D|-2--2--2--2--------------2-------|-------0-----------------2-------|          
A|-3--3--3--3-----2-----2--2--2----|-2--2--2--2-----2-----2--2--2----|          
E|----------------0-----0--0--0----|-3--3--3--3-----0-----0--0--0----|          

e|-------3-----3-----3-----3-----3-|-------3-----3-----3-----3-----3-|          
B|-------3-----3-----3-----3-----3-|-------3-----3-----3-----3-----3-|          
G|-------0-----0-----0-----0-----0-|-------0-----0-----0-----0-----0-|          
D|-2--2--2--2--------------2-------|-------0-----------------2-------|          
A|-3--3--3--3-----2-----2--2--2----|-2--2--2--2-----2-----2--2--2----|          
E|----------------0-----0--0--0----|-3--3--3--3-----0-----0--0--0----|          

e|-------3-----3-----3-----3-----3-|-------3-----3-----3-----3-----3-|          
B|-------3-----3-----3-----3-----3-|-------3-----3-----3-----3-----3-|          
G|-------0-----0-----0-----0-----0-|-------0-----0-----0-----0-----0-|          
D|-2--2--2--2--------------2-------|-------0-----------------2-------|          
A|-3--3--3--3-----2-----2--2--2----|-2--2--2--2-----2-----2--2--2----|          
E|----------------0-----0--0--0----|-3--3--3--3-----0-----0--0--0----|          

e|-------3-----3-----3-----3-----3-|-------3-----3-----3-----3-----3-|          
B|-------3-----3-----3-----3-----3-|-------3-----3-----3-----3-----3-|          
G|-------0-----0-----0-----0-----0-|-------0-----0-----0-----0-----0-|          
D|-2--2--2--2--------------2-------|-------0-----------------2-------|          
A|-3--3--3--3-----2-----2--2--2----|-2--2--2--2-----2-----2--2--2----|          
E|----------------0-----0--0--0----|-3--3--3--3-----0-----0--0--0----|          

e|-------3-----3-----3-----3-----3-|-------3-----3-----3-----3-----3-|          
B|-------3-----3-----3-----3-----3-|-------3-----3-----3-----3-----3-|          
G|-------0-----0-----0-----0-----0-|-------0-----0-----0-----0-----0-|          
D|-2--2--2--2--------------2-------|-------0-----------------2-------|          
A|-3--3--3--3-----2-----2--2--2----|-2--2--2--2-----2-----2--2--2----|          
E|----------------0-----0--0--0----|-3--3--3--3-----0-----0--0--0----|          

e|-------3-----3-----3-----3-----3-|-------3-----3-----3-----3-----3-|          
B|-------3-----3-----3-----3-----3-|-------3-----3-----3-----3-----3-|          
G|-------0-----0-----0-----0-----0-|-------0-----0-----0-----0-----0-|          
D|-2--2--2--2--------------2-------|-------0-----------------2-------|          
A|-3--3--3--3-----2-----2--2--2----|-2--2--2--2-----2-----2--2--2----|          
E|----------------0-----0--0--0----|-3--3--3--3-----0-----0--0--0----|          

e|-------3-----3-----3-----3-----3-|-------3-----3-----3-----3-----3-|          
B|-------3-----3-----3-----3-----3-|-------3-----3-----3-----3-----3-|          
G|-------0-----0-----0-----0-----0-|-------0-----0-----0-----0-----0-|          
D|-2--2--2--2--------------2-------|-------0-----------------2-------|          
A|-3--3--3--3-----2-----2--2--2----|-2--2--2--2-----2-----2--2--2----|          
E|----------------0-----0--0--0----|-3--3--3--3-----0-----0--0--0----|          

e|-------3-----3-----3-----3-----3-|-------3-----3-----3-----3-----3-|          
B|-------3-----3-----3-----3-----3-|-------3-----3-----3-----3-----3-|          
G|-------0-----0-----0-----0-----0-|-------0-----0-----0-----0-----0-|          
D|-2--2--2--2--------------2-------|-------0-----------------2-------|          
A|-3--3--3--3-----2-----2--2--2----|-2--2--2--2-----2-----2--2--2----|          
E|----------------0-----0--0--0----|-3--3--3--3-----0-----0--0--0----|          

e|-------3-----3-----3-----3-----3-|-------3-----3-----3-----3-----3-|          
B|-------3-----3-----3-----3-----3-|-------3-----3-----3-----3-----3-|          
G|-------0-----0-----0-----0-----0-|-------0-----0-----0-----0-----0-|          
D|-2--2--2--2--------------2-------|-------0-----------------2-------|          
A|-3--3--3--3-----2-----2--2--2----|-2--2--2--2-----2-----2--2--2----|          
E|----------------0-----0--0--0----|-3--3--3--3-----0-----0--0--0----|          

e|-------3-----3-----3-----3-----3-|-------3-----3-----3-----3-----3-|          
B|-------3-----3-----3-----3-----3-|-------3-----3-----3-----3-----3-|          
G|-------0-----0-----0-----0-----0-|-------0-----0-----0-----0-----0-|          
D|-2--2--2--2--------------2-------|-------0-----------------2-------|          
A|-3--3--3--3-----2-----2--2--2----|-2--2--2--2-----2-----2--2--2----|          
E|----------------0-----0--0--0----|-3--3--3--3-----0-----0--0--0----|          

e|-------3-----3-----3-----3-----3-|-------3-----3-----3-----3-----3-|          
B|-------3-----3-----3-----3-----3-|-------3-----3-----3-----3-----3-|          
G|-------0-----0-----0-----0-----0-|-------0-----0-----0-----0-----0-|          
D|-2--2--2--2--------------2-------|-------0-----------------2-------|          
A|-3--3--3--3-----2-----2--2--2----|-2--2--2--2-----2-----2--2--2----|          
E|----------------0-----0--0--0----|-3--3--3--3-----0-----0--0--0----|          

e|-------3-----3-----3-----3-----3-|-------3-----3-----3-----3-----3-|          
B|-------3-----3-----3-----3-----3-|-------3-----3-----3-----3-----3-|          
G|-------0-----0-----0-----0-----0-|-------0-----0-----0-----0-----0-|          
D|-2--2--2--2--------------2-------|-------0-----------------2-------|          
A|-3--3--3--3-----2-----2--2--2----|-2--2--2--2-----2-----2--2--2----|          
E|----------------0-----0--0--0----|-3--3--3--3-----0-----0--0--0----|          

e|-------3-----3-----3-----3-----3-|-------3-----3-----3-----3-----3-|          
B|-------3-----3-----3-----3-----3-|-------3-----3-----3-----3-----3-|          
G|-------0-----0-----0-----0-----0-|-------0-----0-----0-----0-----0-|          
D|-2--2--2--2--------------2-------|-------0-----------------2-------|          
A|-3--3--3--3-----2-----2--2--2----|-2--2--2--2-----2-----2--2--2----|          
E|----------------0-----0--0--0----|-3--3--3--3-----0-----0--0--0----|          

e|-------3-----3-----3-----3-----3-|-------3--3----|---|---|                    
B|-------3-----3-----3-----3-----3-|-------3--3----|---|---|                    
G|-------0-----0-----0-----0-----0-|-------0--0----|---|---|                    
D|-2--2--2--2--------------2-------|-------0-------|---|---|                    
A|-3--3--3--3-----2-----2--2--2----|-2--2--2-----2-|---|---|                    
E|----------------0-----0--0--0----|-3--3--3-----0-|---|---|

There is a better way to learn guitar.

FATpick is the tab player that listens.

Choose a song from our library or import custom songs.

FATpick will render any guitar tab as a scrolling “piano-roll” that indicates which and when notes should be played.

Songs can be synchronized with original recordings or configurable backing-tracks.

Get real-time feedback on timing and accuracy as you play along with any electric or acoustic guitar.

Slow down to nail a particular passage, or speed up to improve your mastery.

Track your progress through personal records or compete for a position on our global leaderboards.

Try FATpick for Free

Download for Mac OSX Download for Windows Download for Android Download for iOS

Early Access

I'm interested in the


FATpick for MacOS and FATpick for Windows are available to download immediately.

Download for Mac OSX Download for Windows

Pre-release versions of FATpick for other platforms are currently available to a limited audience.

 

Pre-release versions of FATpick are available to a limited audience.

During this field-testing phase FATpick is absolutely free.

Play any song from our growing library. Import custom tabs.

Works with any guitar. No extra equipment or cables needed.

No time limits.

Copyright © 2018 - 2019 FATpick LLC.