Wonderwall

by

Oasis


from the album

(What's the Story) Morning Glory?

Cover art for (What's the Story) Morning Glory? by Oasis featuring the song Wonderwall

Guitar (Melody) Tablature

Standard (E A D G B E) Tuning
e|---|---|---|---|---|---|---|---|------------------------------|               
B|---|---|---|---|---|---|---|---|-2--0-----0-----0-----0--0----|               
G|---|---|---|---|---|---|---|---|-------2-----2-----2--------2-|               
D|---|---|---|---|---|---|---|---|------------------------------|               
A|---|---|---|---|---|---|---|---|------------------------------|               
E|---|---|---|---|---|---|---|---|------------------------------|               

e|---------------------|---------------------------|------------------|         
B|-0-----0-----0--2----|-2--0-----0-----0--0--0----|-0--0-----0--2----|         
G|----2-----2--------2-|-------2-----2-----------2-|-------2--------2-|         
D|---------------------|---------------------------|------------------|         
A|---------------------|---------------------------|------------------|         
E|---------------------|---------------------------|------------------|         

e|----0-----0--0--2--0-------|---------------------------|---|---|              
B|-2-----2--------------2----|-0--0--0--2----------------|---|---|              
G|-------------------------2-|-------------2-----------2-|---|---|              
D|---------------------------|----------------4--4--4----|-4-|---|              
A|---------------------------|---------------------------|---|---|              
E|---------------------------|---------------------------|---|---|              

e|------------------------------|---------------------|                         
B|-2--0-----0-----0-----0--0----|-0-----0-----0--2----|                         
G|-------2-----2-----2--------2-|----2-----2--------2-|                         
D|------------------------------|---------------------|                         
A|------------------------------|---------------------|                         
E|------------------------------|---------------------|                         

e|------------------------------|---------------------|                         
B|-2--0-----0-----0-----0--0----|-0-----0-----0--2----|                         
G|-------2-----2-----2--------2-|----2-----2--------2-|                         
D|------------------------------|---------------------|                         
A|------------------------------|---------------------|                         
E|------------------------------|---------------------|                         

e|----0-----0--0--2--0-------|---------------------------|---|------|           
B|-2-----2--------------2----|-0--0--0--2----------------|---|------|           
G|-------------------------2-|-------------2-----------2-|---|-2--2-|           
D|---------------------------|----------------4--4--4----|-4-|------|           
A|---------------------------|---------------------------|---|------|           
E|---------------------------|---------------------------|---|------|           

e|------------------------|---------|------------------------|---|              
B|------------------------|---------|------------------------|---|              
G|-4-----1--2--4-----1--2-|----2--2-|-4-----1--2--4-----1--2-|---|              
D|----4-----------4-------|-4-------|----4-----------4-------|-4-|              
A|------------------------|---------|------------------------|---|              
E|------------------------|---------|------------------------|---|              

e|------------------------|------------------------------|------|------|------| 
B|------------------------|-2--2-----2--------------2----|------|----2-|-2----| 
G|-2--4-----1--2--4-----2-|-------4-----2--2--2--4-----4-|-2----|-4----|----2-| 
D|-------4-----------4----|------------------------------|----4-|------|------| 
A|------------------------|------------------------------|------|------|------| 
E|------------------------|------------------------------|------|------|------| 

e|---------------------|------|-------0----|---|---------------|------|---|---| 
B|---------------------|-2----|-2--3-------|---|-2--2--3--2--2-|------|---|---| 
G|----2-----2-----2--2-|----2-|----------2-|---|---------------|-4--2-|---|---| 
D|-4-----4-----4-------|------|------------|---|---------------|------|---|---| 
A|---------------------|------|------------|---|---------------|------|---|---| 
E|---------------------|------|------------|---|---------------|------|---|---| 

e|---|------------------------------|---------------------|                     
B|---|-2--0-----0-----0-----0--0----|-0-----0-----0--2----|                     
G|---|-------2-----2-----2--------2-|----2-----2--------2-|                     
D|---|------------------------------|---------------------|                     
A|---|------------------------------|---------------------|                     
E|---|------------------------------|---------------------|                     

e|---------------------------|------------------|----0-----0--0--2--0-------|   
B|-2--0-----0-----0--0--0----|-0--0-----0--2----|-2-----2--------------2----|   
G|-------2-----2-----------2-|-------2--------2-|-------------------------2-|   
D|---------------------------|------------------|---------------------------|   
A|---------------------------|------------------|---------------------------|   
E|---------------------------|------------------|---------------------------|   

e|---------------------------|---|------|------------------------|---------|    
B|-0--0--0--2----------------|---|------|------------------------|---------|    
G|-------------2-----------2-|---|-2--2-|-4-----1--2--4-----1--2-|----2--2-|    
D|----------------4--4--4----|-4-|------|----4-----------4-------|-4-------|    
A|---------------------------|---|------|------------------------|---------|    
E|---------------------------|---|------|------------------------|---------|    

e|------------------------|---|------------------------|                        
B|------------------------|---|------------------------|                        
G|-4-----1--2--4-----1--2-|---|-2--4-----1--2--4-----2-|                        
D|----4-----------4-------|-4-|-------4-----------4----|                        
A|------------------------|---|------------------------|                        
E|------------------------|---|------------------------|                        

e|------------------------------|------|------|------|---------------------|    
B|-2--2-----2--------------2----|------|-0--2-|-2----|---------------------|    
G|-------4-----2--2--2--4-----4-|-2----|------|----2-|----2-----2-----2--2-|    
D|------------------------------|----4-|------|------|-4-----4-----4-------|    
A|------------------------------|------|------|------|---------------------|    
E|------------------------------|------|------|------|---------------------|    

e|------|-------0----|---|---------------|------|------|------|                 
B|-2----|-2--3-------|---|-2--2--3--2--2-|------|-0--2-|-2----|                 
G|----2-|----------2-|---|---------------|-4--2-|------|----2-|                 
D|------|------------|---|---------------|------|------|------|                 
A|------|------------|---|---------------|------|------|------|                 
E|------|------------|---|---------------|------|------|------|                 

e|---------------------|------|-------0----|---|---------------|------|------|  
B|---------------------|-2----|-2--3-------|---|-2--2--3--2--2-|------|-0--2-|  
G|----2-----2-----2--2-|----2-|----------2-|---|---------------|-4--2-|------|  
D|-4-----4-----4-------|------|------------|---|---------------|------|------|  
A|---------------------|------|------------|---|---------------|------|------|  
E|---------------------|------|------------|---|---------------|------|------|  

e|------|---------------------|------|---------------------|------|             
B|-2----|---------------------|-2----|---------------------|-2----|             
G|----2-|----2-----2-----2--2-|----2-|----2-----2-----2--2-|----2-|             
D|------|-4-----4-----4-------|------|-4-----4-----4-------|------|             
A|------|---------------------|------|---------------------|------|             
E|------|---------------------|------|---------------------|------|             

e|---------------------|------|---|---|---|---|---|---|---|---|---|---|---|     
B|---------------------|-2----|---|---|---|---|---|---|---|---|---|---|---|     
G|----2-----2-----2--2-|----2-|---|---|---|---|---|---|---|---|---|---|---|     
D|-4-----4-----4-------|------|---|---|---|---|---|---|---|---|---|---|---|     
A|---------------------|------|---|---|---|---|---|---|---|---|---|---|---|     
E|---------------------|------|---|---|---|---|---|---|---|---|---|---|---|     

There is a better way to learn guitar.

FATpick is the tab player that listens.

Choose a song from our library or import custom songs.

FATpick will render any guitar tab as a scrolling “piano-roll” that indicates which and when notes should be played.

Songs can be synchronized with original recordings or configurable backing-tracks.

Get real-time feedback on timing and accuracy as you play along with any electric or acoustic guitar.

Slow down to nail a particular passage, or speed up to improve your mastery.

Track your progress through personal records or compete for a position on our global leaderboards.

Try FATpick for Free

Download for Mac OSX Download for Windows Download for Android Download for iOS

Early Access

I'm interested in the


FATpick for MacOS and FATpick for Windows are available to download immediately.

Download for Mac OSX Download for Windows

Pre-release versions of FATpick for other platforms are currently available to a limited audience.

 

Pre-release versions of FATpick are available to a limited audience.

During this field-testing phase FATpick is absolutely free.

Play any song from our growing library. Import custom tabs.

Works with any guitar. No extra equipment or cables needed.

No time limits.

Copyright © 2018 - 2019 FATpick LLC.