Debaser

by

Pixies


from the album

Doolittle

Cover art for Doolittle by Pixies featuring the song Debaser

Lead Guitar Tablature

Standard (E A D G B E) Tuning
e|---|---------10--------------10--------------10--------------10-----|         
B|---|-13--13--13--13--13--13--13--13--13--13--13--13--13--13---X--13-|         
G|---|-12--12--12--12--12--12--12--12--12--12--12--12--12--12--12--12-|         
D|---|----------------------------------------------------------------|         
A|---|----------------------------------------------------------------|         
E|---|----------------------------------------------------------------|         

e|------------------|---------------------|------------------|                  
B|------------------|---------------------|------------------|                  
G|------------------|----------3--2--3--0-|------------------|                  
D|-3--2-----3--2--0-|-3--2--3-------------|-3--2-----3--2--0-|                  
A|-------3----------|---------------------|-------3----------|                  
E|------------------|---------------------|------------------|                  

e|---------------------|                                                        
B|---------------------|                                                        
G|----------3--2--3----|                                                        
D|-3--2--3-------------|                                                        
A|---------------------|                                                        
E|-------------------3-|                                                        

e|----------------------------------------------------------------|             
B|-10--10--10--11--11--11--11--11--11--11--11--11--11--11--11--11-|             
G|-10--10--10--10--10--10--10--10--12--12--12--10--10--10--10--10-|             
D|----------------------------------------------------------------|             
A|----------------------------------------------------------------|             
E|----------------------------------------------------------------|             

e|----------------------------------------------------------------|             
B|-10--10--10--11--11--11--11--11--11--11--11--11--11--11--11--11-|             
G|-10--10--10--10--10--10--10--10--12--12--12--10--10--10--10--10-|             
D|----------------------------------------------------------------|             
A|----------------------------------------------------------------|             
E|----------------------------------------------------------------|             

e|----------------------------------------------------------------|             
B|-10--10--10--11--11--11--11--11--11--11--11--11--11--11--11--11-|             
G|-10--10--10--10--10--10--10--10--12--12--12--10--10--10--10--10-|             
D|----------------------------------------------------------------|             
A|----------------------------------------------------------------|             
E|----------------------------------------------------------------|             

e|----------------------------------------------------------------|             
B|-10--10--10--11--11--11--11--11--11--11--11--11--11--11--11--11-|             
G|-10--10--10--10--10--10--10--10--12--12--12--10--10--10--10--10-|             
D|----------------------------------------------------------------|             
A|----------------------------------------------------------------|             
E|----------------------------------------------------------------|             

e|----------------------------------------------------------------|             
B|-10--10--10--11--11--11--11--11--11--11--11--11--11--11--11--11-|             
G|-10--10--10--10--10--10--10--10--12--12--12--10--10--10--10--10-|             
D|----------------------------------------------------------------|             
A|----------------------------------------------------------------|             
E|----------------------------------------------------------------|             

e|----------------------------------------------------------------|             
B|-10--10--10--11--11--11--11--11--11--11--11--11--11--11--11--11-|             
G|-10--10--10--10--10--10--10--10--12--12--12--10--10--10--10--10-|             
D|----------------------------------------------------------------|             
A|----------------------------------------------------------------|             
E|----------------------------------------------------------------|             

e|----------------------------------------------------------------|             
B|-10--10--10--11--11--11--11--11--11--11--11--11--11--11--11--11-|             
G|-10--10--10--10--10--10--10--10--12--12--12--10--10--10--10--10-|             
D|----------------------------------------------------------------|             
A|----------------------------------------------------------------|             
E|----------------------------------------------------------------|             

e|------------------------------------------------|---|---|                     
B|-10--10--10--11--11--11--11--11--11--11--11--11-|---|---|                     
G|-10--10--10--10--10--10--10--10--12--12--12--10-|---|---|                     
D|------------------------------------------------|---|---|                     
A|------------------------------------------------|---|---|                     
E|------------------------------------------------|---|---|                     

e|---------10--------------10--------------10--------------10-----|             
B|-13--13--13--13--13--13--13--13--13--13--13--13--13--13---X--13-|             
G|-12--12--12--12--12--12--12--12--12--12--12--12--12--12--12--12-|             
D|----------------------------------------------------------------|             
A|----------------------------------------------------------------|             
E|----------------------------------------------------------------|             

e|------------------|---------------------|------------------|                  
B|------------------|---------------------|------------------|                  
G|------------------|----------3--2--3--0-|------------------|                  
D|-3--2-----3--2--0-|-3--2--3-------------|-3--2-----3--2--0-|                  
A|-------3----------|---------------------|-------3----------|                  
E|------------------|---------------------|------------------|                  

e|---------------------|---|---|----------------|----------------|              
B|---------------------|---|---|-10--11--12--15-|-10--11--12--15-|              
G|----------3--2--3----|---|---|----------------|----------------|              
D|-3--2--3-------------|---|---|----------------|----------------|              
A|---------------------|---|---|----------------|----------------|              
E|-------------------3-|---|---|----------------|----------------|              

e|----------------------------------------------------------------|             
B|-10--10--10--11--11--11--11--11--11--11--11--11--11--11--11--11-|             
G|-10--10--10--10--10--10--10--10--12--12--12--10--10--10--10--10-|             
D|----------------------------------------------------------------|             
A|----------------------------------------------------------------|             
E|----------------------------------------------------------------|             

e|----------------------------------------------------------------|             
B|-10--10--10--11--11--11--11--11--11--11--11--11--11--11--11--11-|             
G|-10--10--10--10--10--10--10--10--12--12--12--10--10--10--10--10-|             
D|----------------------------------------------------------------|             
A|----------------------------------------------------------------|             
E|----------------------------------------------------------------|             

e|----------------------------------------------------------------|             
B|-10--10--10--11--11--11--11--11--11--11--11--11--11--11--11--11-|             
G|-10--10--10--10--10--10--10--10--12--12--12--10--10--10--10--10-|             
D|----------------------------------------------------------------|             
A|----------------------------------------------------------------|             
E|----------------------------------------------------------------|             

e|------------------------------------------------|---|                         
B|-10--10--10--11--11--11--11--11--11--11--11--11-|---|                         
G|-10--10--10--10--10--10--10--10--12--12--12--10-|---|                         
D|------------------------------------------------|---|                         
A|------------------------------------------------|---|                         
E|------------------------------------------------|---|                         

e|---------10--------------10--------------10--------------10-----|             
B|-13--13--13--13--13--13--13--13--13--13--13--13--13--13---X--13-|             
G|-12--12--12--12--12--12--12--12--12--12--12--12--12--12--12--12-|             
D|----------------------------------------------------------------|             
A|----------------------------------------------------------------|             
E|----------------------------------------------------------------|             

e|------------------|---------------------|------------------|                  
B|------------------|---------------------|------------------|                  
G|------------------|----------3--2--3--0-|------------------|                  
D|-3--2-----3--2--0-|-3--2--3-------------|-3--2-----3--2--0-|                  
A|-------3----------|---------------------|-------3----------|                  
E|------------------|---------------------|------------------|                  

e|---------------------|                                                        
B|---------------------|                                                        
G|----------3--2--3----|                                                        
D|-3--2--3-------------|                                                        
A|---------------------|                                                        
E|-------------------3-|                                                        

e|----------------------------------------------------------------|             
B|-10--10--10--11--11--11--11--11--11--11--11--11--11--11--11--11-|             
G|-10--10--10--10--10--10--10--10--12--12--12--10--10--10--10--10-|             
D|----------------------------------------------------------------|             
A|----------------------------------------------------------------|             
E|----------------------------------------------------------------|             

e|----------------------------------------------------------------|             
B|-10--10--10--11--11--11--11--11--11--11--11--11--11--11--11--11-|             
G|-10--10--10--10--10--10--10--10--12--12--12--10--10--10--10--10-|             
D|----------------------------------------------------------------|             
A|----------------------------------------------------------------|             
E|----------------------------------------------------------------|             

e|----------------------------------------------------------------|             
B|-10--10--10--11--11--11--11--11--11--11--11--11--11--11--11--11-|             
G|-10--10--10--10--10--10--10--10--12--12--12--10--10--10--10--10-|             
D|----------------------------------------------------------------|             
A|----------------------------------------------------------------|             
E|----------------------------------------------------------------|             

e|----------------------------------------------------------------|             
B|-10--10--10--11--11--11--11--11--11--11--11--11--11--11--11--11-|             
G|-10--10--10--10--10--10--10--10--12--12--12--10--10--10--10--10-|             
D|----------------------------------------------------------------|             
A|----------------------------------------------------------------|             
E|----------------------------------------------------------------|             

e|-13--13--13--13--13--13--13--13--13--13--13--13--13--13--13--13-|             
B|-10--10--10--11--11--11--11--11--11--11--11--11--11--11--11--11-|             
G|-10--10--10--10--10--10--10--10--12--12--12--10--10--10--10--10-|             
D|----------------------------------------------------------------|             
A|----------------------------------------------------------------|             
E|----------------------------------------------------------------|             

e|-13--13--13--13--13--13--13--13--13--13--13--13--13--13--13--13-|             
B|-10--10--10--11--11--11--11--11--11--11--11--11--11--11--11--11-|             
G|-10--10--10--10--10--10--10--10--12--12--12--10--10--10--10--10-|             
D|----------------------------------------------------------------|             
A|----------------------------------------------------------------|             
E|----------------------------------------------------------------|             

e|-13--13--13--13--13--13--13--13--13--13--13--13--13--13--13--13-|             
B|-10--10--10--11--11--11--11--11--11--11--11--11--11--11--11--11-|             
G|-10--10--10--10--10--10--10--10--12--12--12--10--10--10--10--10-|             
D|----------------------------------------------------------------|             
A|----------------------------------------------------------------|             
E|----------------------------------------------------------------|             

e|-13--13--13--13--13--13--13--13--13--13--13--13--13--13--13--13-|             
B|-10--10--10--11--11--11--11--11--11--11--11--11--11--11--11--11-|             
G|-10--10--10--10--10--10--10--10--12--12--12--10--10--10--10--10-|             
D|----------------------------------------------------------------|             
A|----------------------------------------------------------------|             
E|----------------------------------------------------------------|             

e|-13--13--13--13--13--13--13--13--15--15--15--13--13--13--13--13-|             
B|--X---X---X---X---X---X---X---X---X---X---X---X---X---X---X---X-|             
G|-10--10--10--10--10--10--10--10--12--12--12--10--10--10--10--10-|             
D|----------------------------------------------------------------|             
A|----------------------------------------------------------------|             
E|----------------------------------------------------------------|             

e|-13--13--13--13--13--13--13--13--15--15--15--13--13--13--13--13-|             
B|--X---X---X---X---X---X---X---X---X---X---X---X---X---X---X---X-|             
G|-10--10--10--10--10--10--10--10--12--12--12--10--10--10--10--10-|             
D|----------------------------------------------------------------|             
A|----------------------------------------------------------------|             
E|----------------------------------------------------------------|             

e|-13--13--13--13--13--13--13--13--15--15--15--13--13--13--13--13-|             
B|--X---X---X---X---X---X---X---X---X---X---X---X---X---X---X---X-|             
G|-10--10--10--10--10--10--10--10--12--12--12--10--10--10--10--10-|             
D|----------------------------------------------------------------|             
A|----------------------------------------------------------------|             
E|----------------------------------------------------------------|             

e|----------------------------------------------------------------|----|        
B|-10--10--10--11--11--11--11--11--11--11--11--11--11--11--11--11-|-10-|        
G|-10--10--10--10--10--10--10--10--12--12--12--10--10--10--10--10-|-10-|        
D|----------------------------------------------------------------|----|        
A|----------------------------------------------------------------|----|        
E|----------------------------------------------------------------|----|        

There is a better way to learn guitar.

FATpick is the tab player that listens.

Choose a song from our library or import custom songs.

FATpick will render any guitar tab as a scrolling “piano-roll” that indicates which and when notes should be played.

Songs can be synchronized with original recordings or configurable backing-tracks.

Get real-time feedback on timing and accuracy as you play along with any electric or acoustic guitar.

Slow down to nail a particular passage, or speed up to improve your mastery.

Track your progress through personal records or compete for a position on our global leaderboards.

Try FATpick for Free

Download for Mac OSX Download for Windows Download for Android Download for iOS

Early Access

I'm interested in the


FATpick for MacOS and FATpick for Windows are available to download immediately.

Download for Mac OSX Download for Windows

Pre-release versions of FATpick for other platforms are currently available to a limited audience.

 

Pre-release versions of FATpick are available to a limited audience.

During this field-testing phase FATpick is absolutely free.

Play any song from our growing library. Import custom tabs.

Works with any guitar. No extra equipment or cables needed.

No time limits.

Copyright © 2018 - 2019 FATpick LLC.