Debaser

by

Pixies


from the album

Doolittle

Cover art for Doolittle by Pixies featuring the song Debaser

Rhythm Guitar Tablature

Standard (E A D G B E) Tuning
e|---|---|---|-X--X--3--X--X--3-|                                               
B|---|---|---|-X--X--3--X--X--3-|                                               
G|---|---|---|-X--X--4--X--X--4-|                                               
D|---|---|---|-X--X--5--X--X--5-|                                               
A|---|---|---|-X--X--5--X--X--5-|                                               
E|---|---|---|-X--X--3--X--X--3-|                                               

e|-1--1--X--X--5--5--5--5--3--3--X--X-----5--5--5--5-|                          
B|-1--1--X--X--5--5--5--5--5--5--X--X-----6--6--6--6-|                          
G|-2--2--X--X--5--5--5--5--5--5--X--X--7--7--7--7--7-|                          
D|-3--3--X--X--7--7--7--7--5--5--X--X--7--7--7--7--7-|                          
A|-3--3--------7--7--7--7--3--3--------5--5--5--5--5-|                          
E|-1--1--------5--5--5--5----------------------------|                          

e|-5--5--X--X--6--6--6--X--X--3--3--3--3--3--3--3-|                             
B|-5--5--X--X--6--6--6--X--X--3--3--3--3--3--3--3-|                             
G|-5--5--X--X--7--7--7--X--X--3--3--3--3--3--3--3-|                             
D|-7--7--X--X--8--8--8--X--X--5--5--5--5--5--5--5-|                             
A|-7--7--------8--8--8--------5--5--5--5--5--5--5-|                             
E|-5--5--------6--6--6--------3--3--3--3--3--3--3-|                             

e|-1--1--X--X--6--6--6--6--3--3--X--X--6--6--6--6-|                             
B|-1--1--X--X--6--6--6--6--3--3--X--X--6--6--6--6-|                             
G|-2--2--X--X--7--7--7--7--4--4--X--X--7--7--7--7-|                             
D|-3--3--X--X--8--8--8--8--5--5--X--X--8--8--8--8-|                             
A|-3--3--------8--8--8--8--5--5--------8--8--8--8-|                             
E|-1--1--------6--6--6--6--3--3--------6--6--6--6-|                             

e|-1--1--X--X--6--6--6--6--3--3--X--X--6--6--6--6-|                             
B|-1--1--X--X--6--6--6--6--3--3--X--X--6--6--6--6-|                             
G|-2--2--X--X--7--7--7--7--4--4--X--X--7--7--7--7-|                             
D|-3--3--X--X--8--8--8--8--5--5--X--X--8--8--8--8-|                             
A|-3--3--------8--8--8--8--5--5--------8--8--8--8-|                             
E|-1--1--------6--6--6--6--3--3--------6--6--6--6-|                             

e|-1--1--X--X--6--6--6--6--3--3--X--X--6--6--6--6-|                             
B|-1--1--X--X--6--6--6--6--3--3--X--X--6--6--6--6-|                             
G|-2--2--X--X--7--7--7--7--4--4--X--X--7--7--7--7-|                             
D|-3--3--X--X--8--8--8--8--5--5--X--X--8--8--8--8-|                             
A|-3--3--------8--8--8--8--5--5--------8--8--8--8-|                             
E|-1--1--------6--6--6--6--3--3--------6--6--6--6-|                             

e|-1--1--X--X--6--6--6--6--3--3--X--X--6--6--6--6-|                             
B|-1--1--X--X--6--6--6--6--3--3--X--X--6--6--6--6-|                             
G|-2--2--X--X--7--7--7--7--4--4--X--X--7--7--7--7-|                             
D|-3--3--X--X--8--8--8--8--5--5--X--X--8--8--8--8-|                             
A|-3--3--------8--8--8--8--5--5--------8--8--8--8-|                             
E|-1--1--------6--6--6--6--3--3--------6--6--6--6-|                             

e|-1--1--X--X--6--6--6--6--3--3--X--X--6--6--6--6-|                             
B|-1--1--X--X--6--6--6--6--3--3--X--X--6--6--6--6-|                             
G|-2--2--X--X--7--7--7--7--4--4--X--X--7--7--7--7-|                             
D|-3--3--X--X--8--8--8--8--5--5--X--X--8--8--8--8-|                             
A|-3--3--------8--8--8--8--5--5--------8--8--8--8-|                             
E|-1--1--------6--6--6--6--3--3--------6--6--6--6-|                             

e|-1--1--X--X--6--6--6--6--3--3--X--X--6--6--6--6-|                             
B|-1--1--X--X--6--6--6--6--3--3--X--X--6--6--6--6-|                             
G|-2--2--X--X--7--7--7--7--4--4--X--X--7--7--7--7-|                             
D|-3--3--X--X--8--8--8--8--5--5--X--X--8--8--8--8-|                             
A|-3--3--------8--8--8--8--5--5--------8--8--8--8-|                             
E|-1--1--------6--6--6--6--3--3--------6--6--6--6-|                             

e|-1--1--X--X--6--6--6--6--3--3--X--X--6--6--6--6-|                             
B|-1--1--X--X--6--6--6--6--3--3--X--X--6--6--6--6-|                             
G|-2--2--X--X--7--7--7--7--4--4--X--X--7--7--7--7-|                             
D|-3--3--X--X--8--8--8--8--5--5--X--X--8--8--8--8-|                             
A|-3--3--------8--8--8--8--5--5--------8--8--8--8-|                             
E|-1--1--------6--6--6--6--3--3--------6--6--6--6-|                             

e|-1--1--X--X--6--6--6--6--3--3--X--X--6-|                                      
B|-1--1--X--X--6--6--6--6--3--3--X--X--6-|                                      
G|-2--2--X--X--7--7--7--7--4--4--X--X--7-|                                      
D|-3--3--X--X--8--8--8--8--5--5--X--X--8-|                                      
A|-3--3--------8--8--8--8--5--5--------8-|                                      
E|-1--1--------6--6--6--6--3--3--------6-|                                      

e|-6--6--6--6--6--6--6--6--6--6--6--6--6--6--6--6-|                             
B|-6--6--6--6--6--6--6--6--6--6--6--6--6--6--6--6-|                             
G|-7--7--7--7--7--7--7--7--7--7--7--7--7--7--7--7-|                             
D|-8--8--8--8--8--8--8--8--8--8--8--8--8--8--8--8-|                             
A|-8--8--8--8--8--8--8--8--8--8--8--8--8--8--8--8-|                             
E|-6--6--6--6--6--6--6--6--6--6--6--6--6--6--6--6-|                             

e|-6--6--6--X--X--1--1--1--X--X---8---8--X--1--1--1--1-|                        
B|-6--6--6--X--X--1--1--1--X--X---8---8--X--1--1--1--1-|                        
G|-7--7--7--X--X--2--2--2--X--X---9---9--X--2--2--2--2-|                        
D|-8--8--8--X--X--3--3--3--X--X--10--10--X--3--3--3--3-|                        
A|-8--8--8--------3--3--3--------10--10-----3--3--3--3-|                        
E|-6--6--6--------1--1--1---------8---8-----1--1--1--1-|                        

e|-5--5--5--X--X--5--5--5--X--X--6--6--6---8---8---8---8-|---|-X--X--3--X--X--3-|
B|-6--6--6--X--X--5--5--5--X--X--6--6--6---8---8---8---8-|---|-X--X--3--X--X--3-|
G|-7--7--7--X--X--5--5--5--X--X--7--7--7---9---9---9---9-|---|-X--X--4--X--X--4-|
D|-7--7--7--X--X--7--7--7--X--X--8--8--8--10--10--10--10-|---|-X--X--5--X--X--5-|
A|-5--5--5--------7--7--7--------8--8--8--10--10--10--10-|---|-X--X--5--X--X--5-|
E|----------------5--5--5--------6--6--6---8---8---8---8-|---|-X--X--3--X--X--3-|

e|-1--1--X--X--5--5--5--5--3--3--X--X-----5--5--5--5-|                          
B|-1--1--X--X--5--5--5--5--5--5--X--X-----6--6--6--6-|                          
G|-2--2--X--X--5--5--5--5--5--5--X--X--7--7--7--7--7-|                          
D|-3--3--X--X--7--7--7--7--5--5--X--X--7--7--7--7--7-|                          
A|-3--3--------7--7--7--7--3--3--------5--5--5--5--5-|                          
E|-1--1--------5--5--5--5----------------------------|                          

e|-5--5--X--X--6--6--6--X--X--3--3--3--3--3--3--3-|                             
B|-5--5--X--X--6--6--6--X--X--3--3--3--3--3--3--3-|                             
G|-5--5--X--X--7--7--7--X--X--3--3--3--3--3--3--3-|                             
D|-7--7--X--X--8--8--8--X--X--5--5--5--5--5--5--5-|                             
A|-7--7--------8--8--8--------5--5--5--5--5--5--5-|                             
E|-5--5--------6--6--6--------3--3--3--3--3--3--3-|                             

e|-1--1--X--X--6--6--6--6--3--3--X--X--6--6--6--6-|                             
B|-1--1--X--X--6--6--6--6--3--3--X--X--6--6--6--6-|                             
G|-2--2--X--X--7--7--7--7--4--4--X--X--7--7--7--7-|                             
D|-3--3--X--X--8--8--8--8--5--5--X--X--8--8--8--8-|                             
A|-3--3--------8--8--8--8--5--5--------8--8--8--8-|                             
E|-1--1--------6--6--6--6--3--3--------6--6--6--6-|                             

e|-1--1--X--X--6--6--6--6--3--3--X--X--6--6--6--6-|                             
B|-1--1--X--X--6--6--6--6--3--3--X--X--6--6--6--6-|                             
G|-2--2--X--X--7--7--7--7--4--4--X--X--7--7--7--7-|                             
D|-3--3--X--X--8--8--8--8--5--5--X--X--8--8--8--8-|                             
A|-3--3--------8--8--8--8--5--5--------8--8--8--8-|                             
E|-1--1--------6--6--6--6--3--3--------6--6--6--6-|                             

e|-1--1--X--X--6--6--6--6--3--3--X--X--6--6--6--6-|                             
B|-1--1--X--X--6--6--6--6--3--3--X--X--6--6--6--6-|                             
G|-2--2--X--X--7--7--7--7--4--4--X--X--7--7--7--7-|                             
D|-3--3--X--X--8--8--8--8--5--5--X--X--8--8--8--8-|                             
A|-3--3--------8--8--8--8--5--5--------8--8--8--8-|                             
E|-1--1--------6--6--6--6--3--3--------6--6--6--6-|                             

e|-1--1--X--X--6--6--6--6--3--3--X--X--6--6--6--6-|                             
B|-1--1--X--X--6--6--6--6--3--3--X--X--6--6--6--6-|                             
G|-2--2--X--X--7--7--7--7--4--4--X--X--7--7--7--7-|                             
D|-3--3--X--X--8--8--8--8--5--5--X--X--8--8--8--8-|                             
A|-3--3--------8--8--8--8--5--5--------8--8--8--8-|                             
E|-1--1--------6--6--6--6--3--3--------6--6--6--6-|                             

e|-1--1--X--X--6--6--6--6--3--3--X--X--6--6--6--6-|                             
B|-1--1--X--X--6--6--6--6--3--3--X--X--6--6--6--6-|                             
G|-2--2--X--X--7--7--7--7--4--4--X--X--7--7--7--7-|                             
D|-3--3--X--X--8--8--8--8--5--5--X--X--8--8--8--8-|                             
A|-3--3--------8--8--8--8--5--5--------8--8--8--8-|                             
E|-1--1--------6--6--6--6--3--3--------6--6--6--6-|                             

e|-1--1--X--X--6--6--6--6--3--3--X--X--6--6--6--6-|                             
B|-1--1--X--X--6--6--6--6--3--3--X--X--6--6--6--6-|                             
G|-2--2--X--X--7--7--7--7--4--4--X--X--7--7--7--7-|                             
D|-3--3--X--X--8--8--8--8--5--5--X--X--8--8--8--8-|                             
A|-3--3--------8--8--8--8--5--5--------8--8--8--8-|                             
E|-1--1--------6--6--6--6--3--3--------6--6--6--6-|                             

e|-1--1--X--X--6--6--6--6--3--3--X--X--6--6--6--6-|                             
B|-1--1--X--X--6--6--6--6--3--3--X--X--6--6--6--6-|                             
G|-2--2--X--X--7--7--7--7--4--4--X--X--7--7--7--7-|                             
D|-3--3--X--X--8--8--8--8--5--5--X--X--8--8--8--8-|                             
A|-3--3--------8--8--8--8--5--5--------8--8--8--8-|                             
E|-1--1--------6--6--6--6--3--3--------6--6--6--6-|                             

e|-1--1--X--X--6--6--6--6--3--3--X--X--6--6--6--6-|                             
B|-1--1--X--X--6--6--6--6--3--3--X--X--6--6--6--6-|                             
G|-2--2--X--X--7--7--7--7--4--4--X--X--7--7--7--7-|                             
D|-3--3--X--X--8--8--8--8--5--5--X--X--8--8--8--8-|                             
A|-3--3--------8--8--8--8--5--5--------8--8--8--8-|                             
E|-1--1--------6--6--6--6--3--3--------6--6--6--6-|                             

e|-6--6--6--X--X--1--1--1--X--X---8---8--X--1--1--1--1-|                        
B|-6--6--6--X--X--1--1--1--X--X---8---8--X--1--1--1--1-|                        
G|-7--7--7--X--X--2--2--2--X--X---9---9--X--2--2--2--2-|                        
D|-8--8--8--X--X--3--3--3--X--X--10--10--X--3--3--3--3-|                        
A|-8--8--8--------3--3--3--------10--10-----3--3--3--3-|                        
E|-6--6--6--------1--1--1---------8---8-----1--1--1--1-|                        

e|-5--5--5--X--X--5--5--5--X--X--6--6--6---8---8---8---8-|---|-X--X--3--X--X--3-|
B|-6--6--6--X--X--5--5--5--X--X--6--6--6---8---8---8---8-|---|-X--X--3--X--X--3-|
G|-7--7--7--X--X--5--5--5--X--X--7--7--7---9---9---9---9-|---|-X--X--4--X--X--4-|
D|-7--7--7--X--X--7--7--7--X--X--8--8--8--10--10--10--10-|---|-X--X--5--X--X--5-|
A|-5--5--5--------7--7--7--------8--8--8--10--10--10--10-|---|-X--X--5--X--X--5-|
E|----------------5--5--5--------6--6--6---8---8---8---8-|---|-X--X--3--X--X--3-|

e|-1--1--X--X--5--5--5--5--3--3--X--X-----5--5--5--5-|                          
B|-1--1--X--X--5--5--5--5--5--5--X--X-----6--6--6--6-|                          
G|-2--2--X--X--5--5--5--5--5--5--X--X--7--7--7--7--7-|                          
D|-3--3--X--X--7--7--7--7--5--5--X--X--7--7--7--7--7-|                          
A|-3--3--------7--7--7--7--3--3--------5--5--5--5--5-|                          
E|-1--1--------5--5--5--5----------------------------|                          

e|-5--5--X--X--6--6--6--X--X--3--3--3--3--3--3--3-|                             
B|-5--5--X--X--6--6--6--X--X--3--3--3--3--3--3--3-|                             
G|-5--5--X--X--7--7--7--X--X--3--3--3--3--3--3--3-|                             
D|-7--7--X--X--8--8--8--X--X--5--5--5--5--5--5--5-|                             
A|-7--7--------8--8--8--------5--5--5--5--5--5--5-|                             
E|-5--5--------6--6--6--------3--3--3--3--3--3--3-|                             

e|-1--1--X--X--6--6--6--6--3--3--X--X--6--6--6--6-|                             
B|-1--1--X--X--6--6--6--6--3--3--X--X--6--6--6--6-|                             
G|-2--2--X--X--7--7--7--7--4--4--X--X--7--7--7--7-|                             
D|-3--3--X--X--8--8--8--8--5--5--X--X--8--8--8--8-|                             
A|-3--3--------8--8--8--8--5--5--------8--8--8--8-|                             
E|-1--1--------6--6--6--6--3--3--------6--6--6--6-|                             

e|-1--1--X--X--6--6--6--6--3--3--X--X--6--6--6--6-|                             
B|-1--1--X--X--6--6--6--6--3--3--X--X--6--6--6--6-|                             
G|-2--2--X--X--7--7--7--7--4--4--X--X--7--7--7--7-|                             
D|-3--3--X--X--8--8--8--8--5--5--X--X--8--8--8--8-|                             
A|-3--3--------8--8--8--8--5--5--------8--8--8--8-|                             
E|-1--1--------6--6--6--6--3--3--------6--6--6--6-|                             

e|-1--1--X--X--6--6--6--6--3--3--X--X--6--6--6--6-|                             
B|-1--1--X--X--6--6--6--6--3--3--X--X--6--6--6--6-|                             
G|-2--2--X--X--7--7--7--7--4--4--X--X--7--7--7--7-|                             
D|-3--3--X--X--8--8--8--8--5--5--X--X--8--8--8--8-|                             
A|-3--3--------8--8--8--8--5--5--------8--8--8--8-|                             
E|-1--1--------6--6--6--6--3--3--------6--6--6--6-|                             

e|-1--1--X--X--6--6--6--6--3--3--X--X--6--6--6--6-|                             
B|-1--1--X--X--6--6--6--6--3--3--X--X--6--6--6--6-|                             
G|-2--2--X--X--7--7--7--7--4--4--X--X--7--7--7--7-|                             
D|-3--3--X--X--8--8--8--8--5--5--X--X--8--8--8--8-|                             
A|-3--3--------8--8--8--8--5--5--------8--8--8--8-|                             
E|-1--1--------6--6--6--6--3--3--------6--6--6--6-|                             

e|-1--1--X--X--6--6--6--6--3--3--X--X--6--6--6--6-|                             
B|-1--1--X--X--6--6--6--6--3--3--X--X--6--6--6--6-|                             
G|-2--2--X--X--7--7--7--7--4--4--X--X--7--7--7--7-|                             
D|-3--3--X--X--8--8--8--8--5--5--X--X--8--8--8--8-|                             
A|-3--3--------8--8--8--8--5--5--------8--8--8--8-|                             
E|-1--1--------6--6--6--6--3--3--------6--6--6--6-|                             

e|-1--1--X--X--6--6--6--6--3--3--X--X--6--6--6--6-|                             
B|-1--1--X--X--6--6--6--6--3--3--X--X--6--6--6--6-|                             
G|-2--2--X--X--7--7--7--7--4--4--X--X--7--7--7--7-|                             
D|-3--3--X--X--8--8--8--8--5--5--X--X--8--8--8--8-|                             
A|-3--3--------8--8--8--8--5--5--------8--8--8--8-|                             
E|-1--1--------6--6--6--6--3--3--------6--6--6--6-|                             

e|-1--1--X--X--6--6--6--6--3--3--X--X--6--6--6--6-|                             
B|-1--1--X--X--6--6--6--6--3--3--X--X--6--6--6--6-|                             
G|-2--2--X--X--7--7--7--7--4--4--X--X--7--7--7--7-|                             
D|-3--3--X--X--8--8--8--8--5--5--X--X--8--8--8--8-|                             
A|-3--3--------8--8--8--8--5--5--------8--8--8--8-|                             
E|-1--1--------6--6--6--6--3--3--------6--6--6--6-|                             

e|-1--1--X--X--6--6--6--6--3--3--X--X--6--6--6--6-|                             
B|-1--1--X--X--6--6--6--6--3--3--X--X--6--6--6--6-|                             
G|-2--2--X--X--7--7--7--7--4--4--X--X--7--7--7--7-|                             
D|-3--3--X--X--8--8--8--8--5--5--X--X--8--8--8--8-|                             
A|-3--3--------8--8--8--8--5--5--------8--8--8--8-|                             
E|-1--1--------6--6--6--6--3--3--------6--6--6--6-|                             

e|-1--1--X--X--6--6--6--6--3--3--X--X--6--6--6--6-|                             
B|-1--1--X--X--6--6--6--6--3--3--X--X--6--6--6--6-|                             
G|-2--2--X--X--7--7--7--7--4--4--X--X--7--7--7--7-|                             
D|-3--3--X--X--8--8--8--8--5--5--X--X--8--8--8--8-|                             
A|-3--3--------8--8--8--8--5--5--------8--8--8--8-|                             
E|-1--1--------6--6--6--6--3--3--------6--6--6--6-|                             

e|-1--1--X--X--6--6--6--6--3--3--X--X--6--6--6--6-|                             
B|-1--1--X--X--6--6--6--6--3--3--X--X--6--6--6--6-|                             
G|-2--2--X--X--7--7--7--7--4--4--X--X--7--7--7--7-|                             
D|-3--3--X--X--8--8--8--8--5--5--X--X--8--8--8--8-|                             
A|-3--3--------8--8--8--8--5--5--------8--8--8--8-|                             
E|-1--1--------6--6--6--6--3--3--------6--6--6--6-|                             

e|-1--1--X--X--6--6--6--6--3--3--X--X--6--6--6--6-|                             
B|-1--1--X--X--6--6--6--6--3--3--X--X--6--6--6--6-|                             
G|-2--2--X--X--7--7--7--7--4--4--X--X--7--7--7--7-|                             
D|-3--3--X--X--8--8--8--8--5--5--X--X--8--8--8--8-|                             
A|-3--3--------8--8--8--8--5--5--------8--8--8--8-|                             
E|-1--1--------6--6--6--6--3--3--------6--6--6--6-|                             

e|-1--1--X--X--6--6--6--6--3--3--X--X--6--6--6--6-|-1-|                         
B|-1--1--X--X--6--6--6--6--3--3--X--X--6--6--6--6-|-1-|                         
G|-2--2--X--X--7--7--7--7--4--4--X--X--7--7--7--7-|-2-|                         
D|-3--3--X--X--8--8--8--8--5--5--X--X--8--8--8--8-|-3-|                         
A|-3--3--------8--8--8--8--5--5--------8--8--8--8-|-3-|                         
E|-1--1--------6--6--6--6--3--3--------6--6--6--6-|-1-|                         

There is a better way to learn guitar.

FATpick is the tab player that listens.

Choose a song from our library or import custom songs.

FATpick will render any guitar tab as a scrolling “piano-roll” that indicates which and when notes should be played.

Songs can be synchronized with original recordings or configurable backing-tracks.

Get real-time feedback on timing and accuracy as you play along with any electric or acoustic guitar.

Slow down to nail a particular passage, or speed up to improve your mastery.

Track your progress through personal records or compete for a position on our global leaderboards.

Try FATpick for Free

Download for Mac OSX Download for Windows Download for Android Download for iOS

Early Access

I'm interested in the


FATpick for MacOS and FATpick for Windows are available to download immediately.

Download for Mac OSX Download for Windows

Pre-release versions of FATpick for other platforms are currently available to a limited audience.

 

Pre-release versions of FATpick are available to a limited audience.

During this field-testing phase FATpick is absolutely free.

Play any song from our growing library. Import custom tabs.

Works with any guitar. No extra equipment or cables needed.

No time limits.

Copyright © 2018 - 2019 FATpick LLC.