Just Like Heaven

by

The Cure


from the album

Kiss Me, Kiss Me, Kiss Me

Acoustic Guitar Tablature

Standard (E A D G B E) Tuning
e|---|---|---|---|---|---|---|---|-0--0-|-0--0--0--0--0--0-|                    
B|---|---|---|---|---|---|---|---|-2--2-|-2--2--2--2--2--0-|                    
G|---|---|---|---|---|---|---|---|-2--2-|-2--2--2--2--2--1-|                    
D|---|---|---|---|---|---|---|---|-2--2-|-2--2--2--2--2--2-|                    
A|---|---|---|---|---|---|---|---|-0--0-|-0--0--0--0--0--2-|                    
E|---|---|---|---|---|---|---|---|------|----------------0-|                    

e|-0--0--0--0--0--2--2-|-2--2--2--2--2--2--2-|-2--2--2--2--2--2--2--2-|         
B|-0--0--0--0--0--3--3-|-3--3--3--3--3--3--3-|-3--3--3--3--3--3--3--3-|         
G|-1--1--1--1--1--4--4-|-4--4--4--4--4--4--2-|-2--2--2--2--2--2--2--2-|         
D|-2--2--2--2--2--4--4-|-4--4--4--4--4--4--0-|-0--0--0--0--0--0--0--0-|         
A|-2--2--2--2--2--2--2-|-2--2--2--2--2--2----|------------------------|         
E|-0--0--0--0--0-------|---------------------|------------------------|         

e|-0--0--0--0--0--0-|-0--0--0--0--0--2--2-|-2--2--2--2--2--2--2-|               
B|-2--2--2--2--2--0-|-0--0--0--0--0--3--3-|-3--3--3--3--3--3--3-|               
G|-2--2--2--2--2--1-|-1--1--1--1--1--4--4-|-4--4--4--4--4--4--2-|               
D|-2--2--2--2--2--2-|-2--2--2--2--2--4--4-|-4--4--4--4--4--4--0-|               
A|-0--0--0--0--0--2-|-2--2--2--2--2--2--2-|-2--2--2--2--2--2----|               
E|----------------0-|-0--0--0--0--0-------|---------------------|               

e|-2--2--2--2--2--2--2--2-|-0--0--0--0--0--0-|-0--0--0--0--0--2--2-|            
B|-3--3--3--3--3--3--3--3-|-2--2--2--2--2--0-|-0--0--0--0--0--3--3-|            
G|-2--2--2--2--2--2--2--2-|-2--2--2--2--2--1-|-1--1--1--1--1--4--4-|            
D|-0--0--0--0--0--0--0--0-|-2--2--2--2--2--2-|-2--2--2--2--2--4--4-|            
A|------------------------|-0--0--0--0--0--2-|-2--2--2--2--2--2--2-|            
E|------------------------|----------------0-|-0--0--0--0--0-------|            

e|-2--2--2--2--2--2--2-|-2--2--2--2--2--2--2--2-|-0--0--0--0--0--0-|            
B|-3--3--3--3--3--3--3-|-3--3--3--3--3--3--3--3-|-2--2--2--2--2--0-|            
G|-4--4--4--4--4--4--2-|-2--2--2--2--2--2--2--2-|-2--2--2--2--2--1-|            
D|-4--4--4--4--4--4--0-|-0--0--0--0--0--0--0--0-|-2--2--2--2--2--2-|            
A|-2--2--2--2--2--2----|------------------------|-0--0--0--0--0--2-|            
E|---------------------|------------------------|----------------0-|            

e|-0--0--0--0--0--2--2-|-2--2--2--2--2--2--2-|-2--2--2--2--2--2--2--2-|         
B|-0--0--0--0--0--3--3-|-3--3--3--3--3--3--3-|-3--3--3--3--3--3--3--3-|         
G|-1--1--1--1--1--4--4-|-4--4--4--4--4--4--2-|-2--2--2--2--2--2--2--2-|         
D|-2--2--2--2--2--4--4-|-4--4--4--4--4--4--0-|-0--0--0--0--0--0--0--0-|         
A|-2--2--2--2--2--2--2-|-2--2--2--2--2--2----|------------------------|         
E|-0--0--0--0--0-------|---------------------|------------------------|         

e|-0--0--0--0--0--0-|-0--0--0--0--0--2--2-|-2--2--2--2--2--2--2-|               
B|-2--2--2--2--2--0-|-0--0--0--0--0--3--3-|-3--3--3--3--3--3--3-|               
G|-2--2--2--2--2--1-|-1--1--1--1--1--4--4-|-4--4--4--4--4--4--2-|               
D|-2--2--2--2--2--2-|-2--2--2--2--2--4--4-|-4--4--4--4--4--4--0-|               
A|-0--0--0--0--0--2-|-2--2--2--2--2--2--2-|-2--2--2--2--2--2----|               
E|----------------0-|-0--0--0--0--0-------|---------------------|               

e|-2--2--2--2--2--2--2--2-|-0--0--0--0--0--0-|-0--0--0--0--0--2--2-|            
B|-3--3--3--3--3--3--3--3-|-2--2--2--2--2--0-|-0--0--0--0--0--3--3-|            
G|-2--2--2--2--2--2--2--2-|-2--2--2--2--2--1-|-1--1--1--1--1--4--4-|            
D|-0--0--0--0--0--0--0--0-|-2--2--2--2--2--2-|-2--2--2--2--2--4--4-|            
A|------------------------|-0--0--0--0--0--2-|-2--2--2--2--2--2--2-|            
E|------------------------|----------------0-|-0--0--0--0--0-------|            

e|-2--2--2--2--2--2--2-|-2--2--2--2--2--2--2--2-|-0--0--0--0--0--0-|            
B|-3--3--3--3--3--3--3-|-3--3--3--3--3--3--3--3-|-2--2--2--2--2--0-|            
G|-4--4--4--4--4--4--2-|-2--2--2--2--2--2--2--2-|-2--2--2--2--2--1-|            
D|-4--4--4--4--4--4--0-|-0--0--0--0--0--0--0--0-|-2--2--2--2--2--2-|            
A|-2--2--2--2--2--2----|------------------------|-0--0--0--0--0--2-|            
E|---------------------|------------------------|----------------0-|            

e|-0--0--0--0--0--2--2-|-2--2--2--2--2--2--2-|-2--2--2--2--2--2--2--2-|         
B|-0--0--0--0--0--3--3-|-3--3--3--3--3--3--3-|-3--3--3--3--3--3--3--3-|         
G|-1--1--1--1--1--4--4-|-4--4--4--4--4--4--2-|-2--2--2--2--2--2--2--2-|         
D|-2--2--2--2--2--4--4-|-4--4--4--4--4--4--0-|-0--0--0--0--0--0--0--0-|         
A|-2--2--2--2--2--2--2-|-2--2--2--2--2--2----|------------------------|         
E|-0--0--0--0--0-------|---------------------|------------------------|         

e|-0--0--0--0--0--0-|-0--0--0--0--0--2--2-|-2--2--2--2--2--2--2-|               
B|-2--2--2--2--2--0-|-0--0--0--0--0--3--3-|-3--3--3--3--3--3--3-|               
G|-2--2--2--2--2--1-|-1--1--1--1--1--4--4-|-4--4--4--4--4--4--2-|               
D|-2--2--2--2--2--2-|-2--2--2--2--2--4--4-|-4--4--4--4--4--4--0-|               
A|-0--0--0--0--0--2-|-2--2--2--2--2--2--2-|-2--2--2--2--2--2----|               
E|----------------0-|-0--0--0--0--0-------|---------------------|               

e|-2--2--2--2--2--2--2--2-|-0--0--0--0--0--0-|-0--0--0--0--0--2--2-|            
B|-3--3--3--3--3--3--3--3-|-2--2--2--2--2--0-|-0--0--0--0--0--3--3-|            
G|-2--2--2--2--2--2--2--2-|-2--2--2--2--2--1-|-1--1--1--1--1--4--4-|            
D|-0--0--0--0--0--0--0--0-|-2--2--2--2--2--2-|-2--2--2--2--2--4--4-|            
A|------------------------|-0--0--0--0--0--2-|-2--2--2--2--2--2--2-|            
E|------------------------|----------------0-|-0--0--0--0--0-------|            

e|-2--2--2--2--2--2--2-|-2--2--2--2--2--2--2--2-|-0--0--0--0--0--0-|            
B|-3--3--3--3--3--3--3-|-3--3--3--3--3--3--3--3-|-2--2--2--2--2--0-|            
G|-4--4--4--4--4--4--2-|-2--2--2--2--2--2--2--2-|-2--2--2--2--2--1-|            
D|-4--4--4--4--4--4--0-|-0--0--0--0--0--0--0--0-|-2--2--2--2--2--2-|            
A|-2--2--2--2--2--2----|------------------------|-0--0--0--0--0--2-|            
E|---------------------|------------------------|----------------0-|            

e|-0--0--0--0--0--2--2-|-2--2--2--2--2--2--2-|-2--2--2--2--2--2--2--2-|         
B|-0--0--0--0--0--3--3-|-3--3--3--3--3--3--3-|-3--3--3--3--3--3--3--3-|         
G|-1--1--1--1--1--4--4-|-4--4--4--4--4--4--2-|-2--2--2--2--2--2--2--2-|         
D|-2--2--2--2--2--4--4-|-4--4--4--4--4--4--0-|-0--0--0--0--0--0--0--0-|         
A|-2--2--2--2--2--2--2-|-2--2--2--2--2--2----|------------------------|         
E|-0--0--0--0--0-------|---------------------|------------------------|         

e|-0--0--0--0--0--0-|-0--0--0--0--0--2--2-|-2--2--2--2--2--2--2-|               
B|-2--2--2--2--2--0-|-0--0--0--0--0--3--3-|-3--3--3--3--3--3--3-|               
G|-2--2--2--2--2--1-|-1--1--1--1--1--4--4-|-4--4--4--4--4--4--2-|               
D|-2--2--2--2--2--2-|-2--2--2--2--2--4--4-|-4--4--4--4--4--4--0-|               
A|-0--0--0--0--0--2-|-2--2--2--2--2--2--2-|-2--2--2--2--2--2----|               
E|----------------0-|-0--0--0--0--0-------|---------------------|               

e|-2--2--2--2--2--2--2--2-|-0--0--0--0--0--0-|-0--0--0--0--0--2--2-|            
B|-3--3--3--3--3--3--3--3-|-2--2--2--2--2--0-|-0--0--0--0--0--3--3-|            
G|-2--2--2--2--2--2--2--2-|-2--2--2--2--2--1-|-1--1--1--1--1--4--4-|            
D|-0--0--0--0--0--0--0--0-|-2--2--2--2--2--2-|-2--2--2--2--2--4--4-|            
A|------------------------|-0--0--0--0--0--2-|-2--2--2--2--2--2--2-|            
E|------------------------|----------------0-|-0--0--0--0--0-------|            

e|-2--2--2--2--2--2--2-|-2--2--2--2--2--2--2--2-|-0--0--0--0--0--0-|            
B|-3--3--3--3--3--3--3-|-3--3--3--3--3--3--3--3-|-2--2--2--2--2--0-|            
G|-4--4--4--4--4--4--2-|-2--2--2--2--2--2--2--2-|-2--2--2--2--2--1-|            
D|-4--4--4--4--4--4--0-|-0--0--0--0--0--0--0--0-|-2--2--2--2--2--2-|            
A|-2--2--2--2--2--2----|------------------------|-0--0--0--0--0--2-|            
E|---------------------|------------------------|----------------0-|            

e|-0--0--0--0--0--2--2-|-2--2--2--2--2--2--2-|-2--2--2--2--2--2--2--2-|         
B|-0--0--0--0--0--3--3-|-3--3--3--3--3--3--3-|-3--3--3--3--3--3--3--3-|         
G|-1--1--1--1--1--4--4-|-4--4--4--4--4--4--2-|-2--2--2--2--2--2--2--2-|         
D|-2--2--2--2--2--4--4-|-4--4--4--4--4--4--0-|-0--0--0--0--0--0--0--0-|         
A|-2--2--2--2--2--2--2-|-2--2--2--2--2--2----|------------------------|         
E|-0--0--0--0--0-------|---------------------|------------------------|         

e|-0--0--0--0--0--0-|-0--0--0--0--0--2--2-|-2--2--2--2--2--2--2-|               
B|-2--2--2--2--2--0-|-0--0--0--0--0--3--3-|-3--3--3--3--3--3--3-|               
G|-2--2--2--2--2--1-|-1--1--1--1--1--4--4-|-4--4--4--4--4--4--2-|               
D|-2--2--2--2--2--2-|-2--2--2--2--2--4--4-|-4--4--4--4--4--4--0-|               
A|-0--0--0--0--0--2-|-2--2--2--2--2--2--2-|-2--2--2--2--2--2----|               
E|----------------0-|-0--0--0--0--0-------|---------------------|               

e|-2--2--2--2--2--2--2--2-|-0--0--0--0--0--0-|-0--0--0--0--0--2--2-|            
B|-3--3--3--3--3--3--3--3-|-2--2--2--2--2--0-|-0--0--0--0--0--3--3-|            
G|-2--2--2--2--2--2--2--2-|-2--2--2--2--2--1-|-1--1--1--1--1--4--4-|            
D|-0--0--0--0--0--0--0--0-|-2--2--2--2--2--2-|-2--2--2--2--2--4--4-|            
A|------------------------|-0--0--0--0--0--2-|-2--2--2--2--2--2--2-|            
E|------------------------|----------------0-|-0--0--0--0--0-------|            

e|-2--2--2--2--2--2--2-|-2--2--2--2--2--2--2--2-|-0--0--0--0--0--0-|            
B|-3--3--3--3--3--3--3-|-3--3--3--3--3--3--3--3-|-2--2--2--2--2--0-|            
G|-4--4--4--4--4--4--2-|-2--2--2--2--2--2--2--2-|-2--2--2--2--2--1-|            
D|-4--4--4--4--4--4--0-|-0--0--0--0--0--0--0--0-|-2--2--2--2--2--2-|            
A|-2--2--2--2--2--2----|------------------------|-0--0--0--0--0--2-|            
E|---------------------|------------------------|----------------0-|            

e|-0--0--0--0--0--2--2-|-2--2--2--2--2--2--2-|-2--2--2--2--2--2--2--2-|         
B|-0--0--0--0--0--3--3-|-3--3--3--3--3--3--3-|-3--3--3--3--3--3--3--3-|         
G|-1--1--1--1--1--4--4-|-4--4--4--4--4--4--2-|-2--2--2--2--2--2--2--2-|         
D|-2--2--2--2--2--4--4-|-4--4--4--4--4--4--0-|-0--0--0--0--0--0--0--0-|         
A|-2--2--2--2--2--2--2-|-2--2--2--2--2--2----|------------------------|         
E|-0--0--0--0--0-------|---------------------|------------------------|         

e|-0--0--0--0--0--0-|-0--0--0--0--0--2--2-|-2--2--2--2--2--2--2-|               
B|-2--2--2--2--2--0-|-0--0--0--0--0--3--3-|-3--3--3--3--3--3--3-|               
G|-2--2--2--2--2--1-|-1--1--1--1--1--4--4-|-4--4--4--4--4--4--2-|               
D|-2--2--2--2--2--2-|-2--2--2--2--2--4--4-|-4--4--4--4--4--4--0-|               
A|-0--0--0--0--0--2-|-2--2--2--2--2--2--2-|-2--2--2--2--2--2----|               
E|----------------0-|-0--0--0--0--0-------|---------------------|               

e|-2--2--2--2--2--2--2--2-|-0--0--0--0--0--0-|-0--0--0--0--0--2--2-|            
B|-3--3--3--3--3--3--3--3-|-2--2--2--2--2--0-|-0--0--0--0--0--3--3-|            
G|-2--2--2--2--2--2--2--2-|-2--2--2--2--2--1-|-1--1--1--1--1--4--4-|            
D|-0--0--0--0--0--0--0--0-|-2--2--2--2--2--2-|-2--2--2--2--2--4--4-|            
A|------------------------|-0--0--0--0--0--2-|-2--2--2--2--2--2--2-|            
E|------------------------|----------------0-|-0--0--0--0--0-------|            

e|-2--2--2--2--2--2--2-|-2--2--2--2--2--2--2--2-|-2--2--2--2--2--2--3-|         
B|-3--3--3--3--3--3--3-|-3--3--3--3--3--3--3--3-|-2--2--2--2--2--2--3-|         
G|-4--4--4--4--4--4--2-|-2--2--2--2--2--2--2--2-|-2--2--2--2--2--2--4-|         
D|-4--4--4--4--4--4--0-|-0--0--0--0--0--0--0--0-|-2--2--2--2--2--2--5-|         
A|-2--2--2--2--2--2----|------------------------|-4--4--4--4--4--4--5-|         
E|---------------------|------------------------|-2--2--2--2--2--2--3-|         

e|-3--3--3--3--3--3--3--3--3-|-2--2--2--2--2--2--3-|-3--3--3--3--3--3--3--3--3-|
B|-3--3--3--3--3--3--3--3--3-|-2--2--2--2--2--2--3-|-3--3--3--3--3--3--3--3--3-|
G|-4--4--4--4--4--4--4--4--4-|-2--2--2--2--2--2--4-|-4--4--4--4--4--4--4--4--4-|
D|-5--5--5--5--5--5--5--5--5-|-2--2--2--2--2--2--5-|-5--5--5--5--5--5--5--5--5-|
A|-5--5--5--5--5--5--5--5--5-|-4--4--4--4--4--4--5-|-5--5--5--5--5--5--5--5--5-|
E|-3--3--3--3--3--3--3--3--3-|-2--2--2--2--2--2--3-|-3--3--3--3--3--3--3--3--3-|

e|-2--2--2--2--2--2--3-|-3--3--3--3--3--3--3--3--3-|-2--2--2--2--2--2-|         
B|-2--2--2--2--2--2--3-|-3--3--3--3--3--3--3--3--3-|-3--3--3--3--3--3-|         
G|-2--2--2--2--2--2--4-|-4--4--4--4--4--4--4--4--4-|-2--2--2--2--2--2-|         
D|-2--2--2--2--2--2--5-|-5--5--5--5--5--5--5--5--5-|-0--0--0--0--0--0-|         
A|-4--4--4--4--4--4--5-|-5--5--5--5--5--5--5--5--5-|------------------|         
E|-2--2--2--2--2--2--3-|-3--3--3--3--3--3--3--3--3-|------------------|         

e|-2--2--2--2--2-|-2--2--2--2--2--2-|-2--2--2--2--2-|-0--0--0--0--0--0-|        
B|-3--3--3--3--3-|-3--3--3--3--3--3-|-3--3--3--3--3-|-2--2--2--2--2--0-|        
G|-2--2--2--2--2-|-2--2--2--2--2--2-|-2--2--2--2--2-|-2--2--2--2--2--1-|        
D|-0--0--0--0--0-|-0--0--0--0--0--0-|-0--0--0--0--0-|-2--2--2--2--2--2-|        
A|---------------|------------------|---------------|-0--0--0--0--0--2-|        
E|---------------|------------------|---------------|----------------0-|        

e|-0--0--0--0--0--2--2-|-2--2--2--2--2--2--2-|-2--2--2--2--2--2--2--2-|         
B|-0--0--0--0--0--3--3-|-3--3--3--3--3--3--3-|-3--3--3--3--3--3--3--3-|         
G|-1--1--1--1--1--4--4-|-4--4--4--4--4--4--2-|-2--2--2--2--2--2--2--2-|         
D|-2--2--2--2--2--4--4-|-4--4--4--4--4--4--0-|-0--0--0--0--0--0--0--0-|         
A|-2--2--2--2--2--2--2-|-2--2--2--2--2--2----|------------------------|         
E|-0--0--0--0--0-------|---------------------|------------------------|         

e|-0--0--0--0--0--0-|-0--0--0--0--0--2--2-|-2--2--2--2--2--2--2-|               
B|-2--2--2--2--2--0-|-0--0--0--0--0--3--3-|-3--3--3--3--3--3--3-|               
G|-2--2--2--2--2--1-|-1--1--1--1--1--4--4-|-4--4--4--4--4--4--2-|               
D|-2--2--2--2--2--2-|-2--2--2--2--2--4--4-|-4--4--4--4--4--4--0-|               
A|-0--0--0--0--0--2-|-2--2--2--2--2--2--2-|-2--2--2--2--2--2----|               
E|----------------0-|-0--0--0--0--0-------|---------------------|               

e|-2--2--2--2--2--2--2--2-|-0--0--0--0--0--0-|-0--0--0--0--0--2--2-|            
B|-3--3--3--3--3--3--3--3-|-2--2--2--2--2--0-|-0--0--0--0--0--3--3-|            
G|-2--2--2--2--2--2--2--2-|-2--2--2--2--2--1-|-1--1--1--1--1--4--4-|            
D|-0--0--0--0--0--0--0--0-|-2--2--2--2--2--2-|-2--2--2--2--2--4--4-|            
A|------------------------|-0--0--0--0--0--2-|-2--2--2--2--2--2--2-|            
E|------------------------|----------------0-|-0--0--0--0--0-------|            

e|-2--2--2--2--2--2--2-|-2--2--2--2--2--2--2--2-|-0--0--0--0--0--0-|            
B|-3--3--3--3--3--3--3-|-3--3--3--3--3--3--3--3-|-2--2--2--2--2--0-|            
G|-4--4--4--4--4--4--2-|-2--2--2--2--2--2--2--2-|-2--2--2--2--2--1-|            
D|-4--4--4--4--4--4--0-|-0--0--0--0--0--0--0--0-|-2--2--2--2--2--2-|            
A|-2--2--2--2--2--2----|------------------------|-0--0--0--0--0--2-|            
E|---------------------|------------------------|----------------0-|            

e|-0--0--0--0--0--2--2-|-2--2--2--2--2--2--2-|-2--2--2--2--2--2--2--2-|         
B|-0--0--0--0--0--3--3-|-3--3--3--3--3--3--3-|-3--3--3--3--3--3--3--3-|         
G|-1--1--1--1--1--4--4-|-4--4--4--4--4--4--2-|-2--2--2--2--2--2--2--2-|         
D|-2--2--2--2--2--4--4-|-4--4--4--4--4--4--0-|-0--0--0--0--0--0--0--0-|         
A|-2--2--2--2--2--2--2-|-2--2--2--2--2--2----|------------------------|         
E|-0--0--0--0--0-------|---------------------|------------------------|         

e|-0--0--0--0--0--0-|-0--0--0--0--0--2--2-|-2--2--2--2--2--2--2-|               
B|-2--2--2--2--2--0-|-0--0--0--0--0--3--3-|-3--3--3--3--3--3--3-|               
G|-2--2--2--2--2--1-|-1--1--1--1--1--4--4-|-4--4--4--4--4--4--2-|               
D|-2--2--2--2--2--2-|-2--2--2--2--2--4--4-|-4--4--4--4--4--4--0-|               
A|-0--0--0--0--0--2-|-2--2--2--2--2--2--2-|-2--2--2--2--2--2----|               
E|----------------0-|-0--0--0--0--0-------|---------------------|               

e|-2--2--2--2--2--2--2--2-|-0--0--0--0--0--0-|-0--0--0--0--0--2--2-|            
B|-3--3--3--3--3--3--3--3-|-2--2--2--2--2--0-|-0--0--0--0--0--3--3-|            
G|-2--2--2--2--2--2--2--2-|-2--2--2--2--2--1-|-1--1--1--1--1--4--4-|            
D|-0--0--0--0--0--0--0--0-|-2--2--2--2--2--2-|-2--2--2--2--2--4--4-|            
A|------------------------|-0--0--0--0--0--2-|-2--2--2--2--2--2--2-|            
E|------------------------|----------------0-|-0--0--0--0--0-------|            

e|-2--2--2--2--2--2--2-|-2--2--2--2--2--2--2--2-|-0--0--0--0--0--0-|            
B|-3--3--3--3--3--3--3-|-3--3--3--3--3--3--3--3-|-2--2--2--2--2--0-|            
G|-4--4--4--4--4--4--2-|-2--2--2--2--2--2--2--2-|-2--2--2--2--2--1-|            
D|-4--4--4--4--4--4--0-|-0--0--0--0--0--0--0--0-|-2--2--2--2--2--2-|            
A|-2--2--2--2--2--2----|------------------------|-0--0--0--0--0--2-|            
E|---------------------|------------------------|----------------0-|            

e|-0--0--0--0--0--2--2-|-2--2--2--2--2--2--2-|-2--2--2--2--2--2--2--2-|         
B|-0--0--0--0--0--3--3-|-3--3--3--3--3--3--3-|-3--3--3--3--3--3--3--3-|         
G|-1--1--1--1--1--4--4-|-4--4--4--4--4--4--2-|-2--2--2--2--2--2--2--2-|         
D|-2--2--2--2--2--4--4-|-4--4--4--4--4--4--0-|-0--0--0--0--0--0--0--0-|         
A|-2--2--2--2--2--2--2-|-2--2--2--2--2--2----|------------------------|         
E|-0--0--0--0--0-------|---------------------|------------------------|         

e|-0--0--0--0--0--0-|-0--0--0--0--0--2--2-|-2--2--2--2--2--2--2-|               
B|-2--2--2--2--2--0-|-0--0--0--0--0--3--3-|-3--3--3--3--3--3--3-|               
G|-2--2--2--2--2--1-|-1--1--1--1--1--4--4-|-4--4--4--4--4--4--2-|               
D|-2--2--2--2--2--2-|-2--2--2--2--2--4--4-|-4--4--4--4--4--4--0-|               
A|-0--0--0--0--0--2-|-2--2--2--2--2--2--2-|-2--2--2--2--2--2----|               
E|----------------0-|-0--0--0--0--0-------|---------------------|               

e|-2--2--2--2--2--2--2--2-|-2--2--2--2--2--3-|-3--3--3--3--3-|-2--2--2--2--2--3-|
B|-3--3--3--3--3--3--3--3-|-2--2--2--2--2--3-|-3--3--3--3--3-|-2--2--2--2--2--3-|
G|-2--2--2--2--2--2--2--2-|-2--2--2--2--2--4-|-4--4--4--4--4-|-2--2--2--2--2--4-|
D|-0--0--0--0--0--0--0--0-|-4--4--4--4--4--5-|-5--5--5--5--5-|-4--4--4--4--4--5-|
A|------------------------|-4--4--4--4--4--5-|-5--5--5--5--5-|-4--4--4--4--4--5-|
E|------------------------|-2--2--2--2--2--3-|-3--3--3--3--3-|-2--2--2--2--2--3-|

e|-3--3--3--3--3-|-2--2--2--2--2--3-|-3--3--3--3--3-|-2-|---|---|---|           
B|-3--3--3--3--3-|-2--2--2--2--2--3-|-3--3--3--3--3-|-3-|---|---|---|           
G|-4--4--4--4--4-|-2--2--2--2--2--4-|-4--4--4--4--4-|-2-|---|---|---|           
D|-5--5--5--5--5-|-4--4--4--4--4--5-|-5--5--5--5--5-|-0-|---|---|---|           
A|-5--5--5--5--5-|-4--4--4--4--4--5-|-5--5--5--5--5-|---|---|---|---|           
E|-3--3--3--3--3-|-2--2--2--2--2--3-|-3--3--3--3--3-|---|---|---|---|           

There is a better way to learn guitar.

FATpick is the tab player that listens.

Choose a song from our library or import custom songs.

FATpick will render any guitar tab as a scrolling “piano-roll” that indicates which and when notes should be played.

Songs can be synchronized with original recordings or configurable backing-tracks.

Get real-time feedback on timing and accuracy as you play along with any electric or acoustic guitar.

Slow down to nail a particular passage, or speed up to improve your mastery.

Track your progress through personal records or compete for a position on our global leaderboards.

Try FATpick for Free

Download for Mac OSX Download for Windows Download for Android Download for iOS

Early Access

I'm interested in the


FATpick for MacOS and FATpick for Windows are available to download immediately.

Download for Mac OSX Download for Windows

Pre-release versions of FATpick for other platforms are currently available to a limited audience.

 

Pre-release versions of FATpick are available to a limited audience.

During this field-testing phase FATpick is absolutely free.

Play any song from our growing library. Import custom tabs.

Works with any guitar. No extra equipment or cables needed.

No time limits.

Copyright © 2018 - 2019 FATpick LLC.