Just Like Heaven

by

The Cure


from the album

Kiss Me, Kiss Me, Kiss Me

Cover art for Kiss Me, Kiss Me, Kiss Me by The Cure featuring the song Just Like Heaven

Rhythm Guitar Tablature

Standard (E A D G B E) Tuning
e|---|---|---|---|---|------------------|------------------|-------------------|
B|---|---|---|---|---|------------------|------------------|-------------------|
G|---|---|---|---|---|------------------|------------------|-------------------|
D|---|---|---|---|---|------------------|------------------|-------------------|
A|---|---|---|---|---|-4--4--4--4--4--2-|-2--2--2--2--2--2-|-5--5--5--5--5---9-|
E|---|---|---|---|---|-5--5--5--5--5--4-|-4--4--4--4--4--4-|-7--7--7--7--7--10-|

e|----------------|------------------|------------------|-------------------|   
B|----------------|------------------|------------------|-------------------|   
G|----------------|------------------|------------------|-------------------|   
D|----------------|------------------|------------------|-------------------|   
A|--9---9---9---9-|-4--4--4--4--4--2-|-2--2--2--2--2--2-|-5--5--5--5--5---9-|   
E|-10--10--10--10-|-5--5--5--5--5--4-|-4--4--4--4--4--4-|-7--7--7--7--7--10-|   

e|----------------|------------------|------------------|-------------------|   
B|----------------|------------------|------------------|-------------------|   
G|----------------|------------------|------------------|-------------------|   
D|----------------|------------------|------------------|-------------------|   
A|--9---9---9---9-|-4--4--4--4--4--2-|-2--2--2--2--2--2-|-5--5--5--5--5---9-|   
E|-10--10--10--10-|-5--5--5--5--5--4-|-4--4--4--4--4--4-|-7--7--7--7--7--10-|   

e|----------------|------------------|------------------|-------------------|   
B|----------------|------------------|------------------|-------------------|   
G|----------------|------------------|------------------|-------------------|   
D|----------------|------------------|------------------|-------------------|   
A|--9---9---9---9-|-4--4--4--4--4--2-|-2--2--2--2--2--2-|-5--5--5--5--5---9-|   
E|-10--10--10--10-|-5--5--5--5--5--4-|-4--4--4--4--4--4-|-7--7--7--7--7--10-|   

e|----------------|------------------|------------------|-------------------|   
B|----------------|------------------|------------------|-------------------|   
G|----------------|------------------|------------------|-------------------|   
D|----------------|------------------|------------------|-------------------|   
A|--9---9---9---9-|-4--4--4--4--4--2-|-2--2--2--2--2--2-|-5--5--5--5--5---9-|   
E|-10--10--10--10-|-5--5--5--5--5--4-|-4--4--4--4--4--4-|-7--7--7--7--7--10-|   

e|----------------|------------------|------------------|-------------------|   
B|----------------|------------------|------------------|-------------------|   
G|----------------|------------------|------------------|-------------------|   
D|----------------|------------------|------------------|-------------------|   
A|--9---9---9---9-|-4--4--4--4--4--2-|-2--2--2--2--2--2-|-5--5--5--5--5---9-|   
E|-10--10--10--10-|-5--5--5--5--5--4-|-4--4--4--4--4--4-|-7--7--7--7--7--10-|   

e|----------------|------------------|------------------|-------------------|   
B|----------------|------------------|------------------|-------------------|   
G|----------------|------------------|------------------|-------------------|   
D|----------------|------------------|------------------|-------------------|   
A|--9---9---9---9-|-4--4--4--4--4--2-|-2--2--2--2--2--2-|-5--5--5--5--5---9-|   
E|-10--10--10--10-|-5--5--5--5--5--4-|-4--4--4--4--4--4-|-7--7--7--7--7--10-|   

e|----------------|------------------|------------------|-------------------|   
B|----------------|------------------|------------------|-------------------|   
G|----------------|------------------|------------------|-------------------|   
D|----------------|------------------|------------------|-------------------|   
A|--9---9---9---9-|-4--4--4--4--4--2-|-2--2--2--2--2--2-|-5--5--5--5--5---9-|   
E|-10--10--10--10-|-5--5--5--5--5--4-|-4--4--4--4--4--4-|-7--7--7--7--7--10-|   

e|----------------|------------------|------------------|-------------------|   
B|----------------|------------------|------------------|-------------------|   
G|----------------|------------------|------------------|-------------------|   
D|----------------|------------------|------------------|-------------------|   
A|--9---9---9---9-|-4--4--4--4--4--2-|-2--2--2--2--2--2-|-5--5--5--5--5---9-|   
E|-10--10--10--10-|-5--5--5--5--5--4-|-4--4--4--4--4--4-|-7--7--7--7--7--10-|   

e|----------------|------------------|------------------|-------------------|   
B|----------------|------------------|------------------|-------------------|   
G|----------------|------------------|------------------|-------------------|   
D|----------------|------------------|------------------|-------------------|   
A|--9---9---9---9-|-4--4--4--4--4--2-|-2--2--2--2--2--2-|-5--5--5--5--5---9-|   
E|-10--10--10--10-|-5--5--5--5--5--4-|-4--4--4--4--4--4-|-7--7--7--7--7--10-|   

e|----------------|------------------|------------------|-------------------|   
B|----------------|------------------|------------------|-------------------|   
G|----------------|------------------|------------------|-------------------|   
D|----------------|------------------|------------------|-------------------|   
A|--9---9---9---9-|-4--4--4--4--4--2-|-2--2--2--2--2--2-|-5--5--5--5--5---9-|   
E|-10--10--10--10-|-5--5--5--5--5--4-|-4--4--4--4--4--4-|-7--7--7--7--7--10-|   

e|----------------|------------------|------------------|-------------------|   
B|----------------|------------------|------------------|-------------------|   
G|----------------|------------------|------------------|-------------------|   
D|----------------|------------------|------------------|-------------------|   
A|--9---9---9---9-|-4--4--4--4--4--2-|-2--2--2--2--2--2-|-5--5--5--5--5---9-|   
E|-10--10--10--10-|-5--5--5--5--5--4-|-4--4--4--4--4--4-|-7--7--7--7--7--10-|   

e|----------------|------------------|------------------|-------------------|   
B|----------------|------------------|------------------|-------------------|   
G|----------------|------------------|------------------|-------------------|   
D|----------------|------------------|------------------|-------------------|   
A|--9---9---9---9-|-4--4--4--4--4--2-|-2--2--2--2--2--2-|-5--5--5--5--5---9-|   
E|-10--10--10--10-|-5--5--5--5--5--4-|-4--4--4--4--4--4-|-7--7--7--7--7--10-|   

e|----------------|------------------|------------------|-------------------|   
B|----------------|------------------|------------------|-------------------|   
G|----------------|------------------|------------------|-------------------|   
D|----------------|------------------|------------------|-------------------|   
A|--9---9---9---9-|-4--4--4--4--4--2-|-2--2--2--2--2--2-|-5--5--5--5--5---9-|   
E|-10--10--10--10-|-5--5--5--5--5--4-|-4--4--4--4--4--4-|-7--7--7--7--7--10-|   

e|----------------|------------------|------------------|-------------------|   
B|----------------|------------------|------------------|-------------------|   
G|----------------|------------------|------------------|-------------------|   
D|----------------|------------------|------------------|-------------------|   
A|--9---9---9---9-|-4--4--4--4--4--2-|-2--2--2--2--2--2-|-5--5--5--5--5---9-|   
E|-10--10--10--10-|-5--5--5--5--5--4-|-4--4--4--4--4--4-|-7--7--7--7--7--10-|   

e|----------------|------------------|------------------|-------------------|   
B|----------------|------------------|------------------|-------------------|   
G|----------------|------------------|------------------|-------------------|   
D|----------------|------------------|------------------|-------------------|   
A|--9---9---9---9-|-4--4--4--4--4--2-|-2--2--2--2--2--2-|-5--5--5--5--5---9-|   
E|-10--10--10--10-|-5--5--5--5--5--4-|-4--4--4--4--4--4-|-7--7--7--7--7--10-|   

e|----------------|------------------|------------------|-------------------|   
B|----------------|------------------|------------------|-------------------|   
G|----------------|------------------|------------------|-------------------|   
D|----------------|------------------|------------------|-------------------|   
A|--9---9---9---9-|-4--4--4--4--4--2-|-2--2--2--2--2--2-|-5--5--5--5--5---9-|   
E|-10--10--10--10-|-5--5--5--5--5--4-|-4--4--4--4--4--4-|-7--7--7--7--7--10-|   

e|----------------|------------------|------------------|-------------------|   
B|----------------|------------------|------------------|-------------------|   
G|----------------|------------------|------------------|-------------------|   
D|----------------|------------------|------------------|-------------------|   
A|--9---9---9---9-|-4--4--4--4--4--2-|-2--2--2--2--2--2-|-5--5--5--5--5---9-|   
E|-10--10--10--10-|-5--5--5--5--5--4-|-4--4--4--4--4--4-|-7--7--7--7--7--10-|   

e|----------------|------------------|------------------|-------------------|   
B|----------------|------------------|------------------|-------------------|   
G|----------------|------------------|------------------|-------------------|   
D|----------------|------------------|------------------|-------------------|   
A|--9---9---9---9-|-4--4--4--4--4--2-|-2--2--2--2--2--2-|-5--5--5--5--5---9-|   
E|-10--10--10--10-|-5--5--5--5--5--4-|-4--4--4--4--4--4-|-7--7--7--7--7--10-|   

e|----------------|------------------|---------------|------------------|       
B|----------------|------------------|---------------|------------------|       
G|----------------|------------------|---------------|------------------|       
D|----------------|------------------|---------------|------------------|       
A|--9---9---9---9-|-4--4--4--4--4--5-|-5--5--5--5--5-|-4--4--4--4--4--5-|       
E|-10--10--10--10-|-2--2--2--2--2--3-|-3--3--3--3--3-|-2--2--2--2--2--3-|       

e|---------------|------------------|---------------|------------------|        
B|---------------|------------------|---------------|------------------|        
G|---------------|------------------|---------------|------------------|        
D|---------------|------------------|---------------|-7--7--7--7--7--7-|        
A|-5--5--5--5--5-|-4--4--4--4--4--5-|-5--5--5--5--5-|-5--5--5--5--5--5-|        
E|-3--3--3--3--3-|-2--2--2--2--2--3-|-3--3--3--3--3-|------------------|        

e|---------------|------------------|---------------|------------------|        
B|---------------|------------------|---------------|------------------|        
G|---------------|------------------|---------------|------------------|        
D|-7--7--7--7--7-|-7--7--7--7--7--7-|-7--7--7--7--7-|------------------|        
A|-5--5--5--5--5-|-5--5--5--5--5--5-|-5--5--5--5--5-|-4--4--4--4--4--2-|        
E|---------------|------------------|---------------|-5--5--5--5--5--4-|        

e|------------------|-------------------|----------------|------------------|   
B|------------------|-------------------|----------------|------------------|   
G|------------------|-------------------|----------------|------------------|   
D|------------------|-------------------|----------------|------------------|   
A|-2--2--2--2--2--2-|-5--5--5--5--5---9-|--9---9---9---9-|-4--4--4--4--4--2-|   
E|-4--4--4--4--4--4-|-7--7--7--7--7--10-|-10--10--10--10-|-5--5--5--5--5--4-|   

e|------------------|-------------------|----------------|------------------|   
B|------------------|-------------------|----------------|------------------|   
G|------------------|-------------------|----------------|------------------|   
D|------------------|-------------------|----------------|------------------|   
A|-2--2--2--2--2--2-|-5--5--5--5--5---9-|--9---9---9---9-|-4--4--4--4--4--2-|   
E|-4--4--4--4--4--4-|-7--7--7--7--7--10-|-10--10--10--10-|-5--5--5--5--5--4-|   

e|------------------|-------------------|----------------|------------------|   
B|------------------|-------------------|----------------|------------------|   
G|------------------|-------------------|----------------|------------------|   
D|------------------|-------------------|----------------|------------------|   
A|-2--2--2--2--2--2-|-5--5--5--5--5---9-|--9---9---9---9-|-4--4--4--4--4--2-|   
E|-4--4--4--4--4--4-|-7--7--7--7--7--10-|-10--10--10--10-|-5--5--5--5--5--4-|   

e|------------------|-------------------|----------------|------------------|   
B|------------------|-------------------|----------------|------------------|   
G|------------------|-------------------|----------------|------------------|   
D|------------------|-------------------|----------------|------------------|   
A|-2--2--2--2--2--2-|-5--5--5--5--5---9-|--9---9---9---9-|-4--4--4--4--4--2-|   
E|-4--4--4--4--4--4-|-7--7--7--7--7--10-|-10--10--10--10-|-5--5--5--5--5--4-|   

e|------------------|-------------------|----------------|------------------|   
B|------------------|-------------------|----------------|------------------|   
G|------------------|-------------------|----------------|------------------|   
D|------------------|-------------------|----------------|------------------|   
A|-2--2--2--2--2--2-|-5--5--5--5--5---9-|--9---9---9---9-|-4--4--4--4--4--2-|   
E|-4--4--4--4--4--4-|-7--7--7--7--7--10-|-10--10--10--10-|-5--5--5--5--5--4-|   

e|------------------|-------------------|----------------|------------------|   
B|------------------|-------------------|----------------|------------------|   
G|------------------|-------------------|----------------|------------------|   
D|------------------|-------------------|----------------|------------------|   
A|-2--2--2--2--2--2-|-5--5--5--5--5---9-|--9---9---9---9-|-4--4--4--4--4--2-|   
E|-4--4--4--4--4--4-|-7--7--7--7--7--10-|-10--10--10--10-|-5--5--5--5--5--4-|   

e|------------------|-------------------|----------------|------------------|   
B|------------------|-------------------|----------------|------------------|   
G|------------------|-------------------|----------------|------------------|   
D|------------------|-------------------|----------------|------------------|   
A|-2--2--2--2--2--2-|-5--5--5--5--5---9-|--9---9---9---9-|-4--4--4--4--4--2-|   
E|-4--4--4--4--4--4-|-7--7--7--7--7--10-|-10--10--10--10-|-5--5--5--5--5--4-|   

e|------------------|-------------------|----------------|------------------|   
B|------------------|-------------------|----------------|------------------|   
G|------------------|-------------------|----------------|------------------|   
D|------------------|-------------------|----------------|------------------|   
A|-2--2--2--2--2--2-|-5--5--5--5--5---9-|--9---9---9---9-|-4--4--4--4--4--5-|   
E|-4--4--4--4--4--4-|-7--7--7--7--7--10-|-10--10--10--10-|-2--2--2--2--2--3-|   

e|---------------|------------------|---------------|------------------|        
B|---------------|------------------|---------------|------------------|        
G|---------------|------------------|---------------|------------------|        
D|---------------|------------------|---------------|------------------|        
A|-5--5--5--5--5-|-4--4--4--4--4--5-|-5--5--5--5--5-|-4--4--4--4--4--5-|        
E|-3--3--3--3--3-|-2--2--2--2--2--3-|-3--3--3--3--3-|-2--2--2--2--2--3-|        

e|---------------|-5-|---|---|---|                                              
B|---------------|-7-|---|---|---|                                              
G|---------------|-7-|---|---|---|                                              
D|---------------|-7-|---|---|---|                                              
A|-5--5--5--5--5-|-5-|---|---|---|                                              
E|-3--3--3--3--3-|---|---|---|---|                                              

There is a better way to learn guitar.

FATpick is the tab player that listens.

Choose a song from our library or import custom songs.

FATpick will render any guitar tab as a scrolling “piano-roll” that indicates which and when notes should be played.

Songs can be synchronized with original recordings or configurable backing-tracks.

Get real-time feedback on timing and accuracy as you play along with any electric or acoustic guitar.

Slow down to nail a particular passage, or speed up to improve your mastery.

Track your progress through personal records or compete for a position on our global leaderboards.

Try FATpick for Free

Download for Mac OSX Download for Windows Download for Android Download for iOS

Early Access

I'm interested in the


FATpick for MacOS and FATpick for Windows are available to download immediately.

Download for Mac OSX Download for Windows

Pre-release versions of FATpick for other platforms are currently available to a limited audience.

 

Pre-release versions of FATpick are available to a limited audience.

During this field-testing phase FATpick is absolutely free.

Play any song from our growing library. Import custom tabs.

Works with any guitar. No extra equipment or cables needed.

No time limits.

Copyright © 2018 - 2019 FATpick LLC.