Mr. Brightside

by

The Killers


from the album

Hot Fuss

Bass Tablature

Standard (E A D G) Tuning
G|---|---|---|---|---|---|---|---|-6--6--6--6--6--6--6--6-|                     
D|---|---|---|---|---|---|---|---|------------------------|                     
A|---|---|---|---|---|---|---|---|------------------------|                     
E|---|---|---|---|---|---|---|---|------------------------|                     

G|-5--5--5--5--5--5--5--5-|------------------------|------------------------|   
D|------------------------|-4--4--4--4--4--4--4--4-|-4--4--4--4--4--4--4--4-|   
A|------------------------|------------------------|------------------------|   
E|------------------------|------------------------|------------------------|   

G|------------------------|------------------------|------------------------|   
D|------------------------|------------------------|------------------------|   
A|-4--4--4--4--4--4--4--4-|-3--3--3--3--3--3--3--3-|------------------------|   
E|------------------------|------------------------|-2--2--2--2--2--2--2--2-|   

G|------------------------|------------------------|------------------------|   
D|------------------------|------------------------|------------------------|   
A|------------------------|-4--4--4--4--4--4--4--4-|-3--3--3--3--3--3--3--3-|   
E|-2--2--2--2--2--2--2--2-|------------------------|------------------------|   

G|------------------------|------------------------|------------|---------|     
D|-4--4--4--4--4--4--4--4-|-4--4--4--4--4--4--4--4-|------------|---------|     
A|------------------------|------------------------|------------|-8--6--4-|     
E|------------------------|------------------------|-6--6--6--6-|---------|     

G|------------|---------|------------|---------|------------|---------|         
D|------------|---------|------------|---------|------------|---------|         
A|------------|-8--6--4-|------------|-6--4--3-|------------|-1--3--4-|         
E|-4--4--4--4-|---------|-2--2--2--2-|---------|-2--2--2--2-|---------|         

G|------------|---------|------------|---------|------------------------|       
D|------------|---------|------------|---------|------------------------|       
A|------------|-8--6--4-|------------|-8--6--4-|------------------------|       
E|-6--6--6--6-|---------|-4--4--4--4-|---------|-1--2--2--2--2--2--2--2-|       

G|------------------------|------------------------|------------------|         
D|------------------------|------------------------|-4--4--4--4--4--4-|         
A|------------------------|------------------------|------------------|         
E|-1--2--2--2--2--2--2--2-|-1--2--2--2--1--2--2--2-|------------------|         

G|------------------------|------------------------|------------------------|   
D|------------------------|-4--4--4--4--4--4--4--4-|------------------------|   
A|-4--4--4--4--4--4--4--4-|------------------------|------------------------|   
E|------------------------|------------------------|-6--6--6--6--6--6--6--6-|   

G|------------------------|------------------------|------------------------|   
D|------------------------|------------------------|-4--4--4--4--4--4--4--4-|   
A|------------------------|-4--4--4--4--4--4--4--4-|------------------------|   
E|-4--4--4--4--4--4--4--4-|------------------------|------------------------|   

G|------------------------|------------------------|------------------------|   
D|------------------------|------------------------|------------------------|   
A|------------------------|------------------------|-4--4--4--4--4--4--4--4-|   
E|-6--6--6--6--6--6--6--6-|-4--4--4--4--4--4--4--4-|------------------------|   

G|------------------------|------------------------|------------------------|   
D|------------------------|------------------------|------------------------|   
A|------------------------|------------------------|------------------------|   
E|-2--2--2--2--2--2--2--2-|-6--6--6--6--6--6--6--6-|-4--4--4--4--4--4--4--4-|   

G|------------------------|------------------------|------------------------|   
D|------------------------|-4--4--4--4--4--4--4--4-|-8--8--8--8--8--8--8--8-|   
A|-4--4--4--4--4--4--4--4-|------------------------|------------------------|   
E|------------------------|------------------------|------------------------|   

G|------------------------|------------------------|------------------------|   
D|-6--6--6--6--6--6--6--6-|------------------------|-4--4--4--4--4--4--4--4-|   
A|------------------------|-4--4--4--4--4--4--4--4-|------------------------|   
E|------------------------|------------------------|------------------------|   

G|------------------------|------------------------|------------------------|   
D|------------------------|------------------------|------------------------|   
A|------------------------|------------------------|-4--4--4--4--4--4--4--4-|   
E|-6--6--6--6--6--6--6--6-|-4--4--4--4--4--4--4--4-|------------------------|   

G|------------------------|------------------------|------------------------|   
D|-4--4--4--4--4--4--4--4-|------------------------|------------------------|   
A|------------------------|------------------------|------------------------|   
E|------------------------|-6--6--6--6--6--6--6--6-|-4--4--4--4--4--4--4--4-|   

G|------------------------|------------------------|------------------------|   
D|------------------------|------------------------|------------------------|   
A|-4--4--4--4--4--4--4--4-|-3--3--3--3--3--3--3--3-|------------------------|   
E|------------------------|------------------------|-2--2--2--2--2--2--2--2-|   

G|------------------------|------------------------|------------------------|---|
D|------------------------|------------------------|------------------------|---|
A|------------------------|-4--4--4--4--4--4--4--4-|-3--3--3--3--3--3--3--3-|---|
E|-2--2--2--2--2--2--2--2-|------------------------|------------------------|-2-|

G|---|------------------------|------------------------|------------------------|
D|---|------------------------|------------------------|------------------------|
A|-9-|-4--4--4--4--4--4--4--4-|-3--3--3--3--3--3--3--3-|------------------------|
E|---|------------------------|------------------------|-2--2--2--2--2--2--2--2-|

G|------------------------|------------------------|------------------------|   
D|------------------------|------------------------|------------------------|   
A|------------------------|-4--4--4--4--4--4--4--4-|-3--3--3--3--3--3--3--3-|   
E|-2--2--2--2--2--2--2--2-|------------------------|------------------------|   

G|------------------------|------------------------|------------|---------|     
D|-4--4--4--4--4--4--4--4-|-4--4--4--4--4--4--4--4-|------------|---------|     
A|------------------------|------------------------|------------|-8--6--4-|     
E|------------------------|------------------------|-6--6--6--6-|---------|     

G|------------|---------|------------|---------|------------|---------|         
D|------------|---------|------------|---------|------------|---------|         
A|------------|-8--6--4-|------------|-6--4--3-|------------|-1--3--4-|         
E|-4--4--4--4-|---------|-2--2--2--2-|---------|-2--2--2--2-|---------|         

G|------------|---------|------------|---------|------------------------|       
D|------------|---------|------------|---------|------------------------|       
A|------------|-8--6--4-|------------|-8--6--4-|------------------------|       
E|-6--6--6--6-|---------|-4--4--4--4-|---------|-1--2--2--2--2--2--2--2-|       

G|------------------------|------------------------|------------------|         
D|------------------------|------------------------|-4--4--4--4--4--4-|         
A|------------------------|------------------------|------------------|         
E|-1--2--2--2--2--2--2--2-|-1--2--2--2--1--2--2--2-|------------------|         

G|------------------------|------------------------|------------------------|   
D|------------------------|-4--4--4--4--4--4--4--4-|------------------------|   
A|-4--4--4--4--4--4--4--4-|------------------------|------------------------|   
E|------------------------|------------------------|-6--6--6--6--6--6--6--6-|   

G|------------------------|------------------------|------------------------|   
D|------------------------|------------------------|-4--4--4--4--4--4--4--4-|   
A|------------------------|-4--4--4--4--4--4--4--4-|------------------------|   
E|-4--4--4--4--4--4--4--4-|------------------------|------------------------|   

G|------------------------|------------------------|------------------------|   
D|------------------------|------------------------|------------------------|   
A|------------------------|------------------------|-4--4--4--4--4--4--4--4-|   
E|-6--6--6--6--6--6--6--6-|-4--4--4--4--4--4--4--4-|------------------------|   

G|------------------------|------------------------|------------------------|   
D|------------------------|------------------------|------------------------|   
A|------------------------|------------------------|------------------------|   
E|-2--2--2--2--2--2--2--2-|-6--6--6--6--6--6--6--6-|-4--4--4--4--4--4--4--4-|   

G|------------------------|------------------------|------------------------|   
D|------------------------|-4--4--4--4--4--4--4--4-|-8--8--8--8--8--8--8--8-|   
A|-4--4--4--4--4--4--4--4-|------------------------|------------------------|   
E|------------------------|------------------------|------------------------|   

G|------------------------|---|---|---|---|---|---|---|---|                     
D|-6--6--6--6--6--6--6--6-|---|-4-|---|---|-3-|---|---|---|                     
A|------------------------|-4-|---|---|---|---|-4-|---|---|                     
E|------------------------|---|---|-6-|-4-|---|---|-6-|-4-|                     

G|------------------------|------------------------|------------------------|   
D|------------------------|-4--4--4--4--4--4--4--4-|------------------------|   
A|-4--4--4--4--4--4--4--4-|------------------------|------------------------|   
E|------------------------|------------------------|-6--6--6--6--6--6--6--6-|   

G|------------------------|------------------------|------------------------|   
D|------------------------|------------------------|-4--4--4--4--4--4--4--4-|   
A|------------------------|-4--4--4--4--4--4--4--4-|------------------------|   
E|-4--4--4--4--4--4--4--4-|------------------------|------------------------|   

G|------------------------|------------------------|------------------------|   
D|------------------------|------------------------|------------------------|   
A|------------------------|------------------------|-4--4--4--4--4--4--4--4-|   
E|-6--6--6--6--6--6--6--6-|-4--4--4--4--4--4--4--4-|------------------------|   

G|------------------------|------------------------|------------------------|   
D|------------------------|------------------------|------------------------|   
A|------------------------|------------------------|------------------------|   
E|-2--2--2--2--2--2--2--2-|-6--6--6--6--6--6--6--6-|-4--4--4--4--4--4--4--4-|   

G|------------------------|------------------------|------------------------|   
D|------------------------|-4--4--4--4--4--4--4--4-|-8--8--8--8--8--8--8--8-|   
A|-4--4--4--4--4--4--4--4-|------------------------|------------------------|   
E|------------------------|------------------------|------------------------|   

G|---------|---|---|---|---|                                                    
D|-6-------|---|---|---|---|                                                    
A|----6----|---|---|---|---|                                                    
E|-------4-|---|---|---|---|                                                    

There is a better way to learn bass.

FATpick is the tab player that listens.

Choose a song from our library or import custom songs.

FATpick will render any bass tab as a scrolling “piano-roll” that indicates which and when notes should be played.

Songs can be synchronized with original recordings or configurable backing-tracks.

Get real-time feedback on timing and accuracy as you play along with any electric or acoustic bass.

Slow down to nail a particular passage, or speed up to improve your mastery.

Track your progress through personal records or compete for a position on our global leaderboards.

Try FATpick for Free

Download for Mac OSX Download for Windows Download for Android Download for iOS

Early Access

I'm interested in the


FATpick for MacOS and FATpick for Windows are available to download immediately.

Download for Mac OSX Download for Windows

Pre-release versions of FATpick for other platforms are currently available to a limited audience.

 

Pre-release versions of FATpick are available to a limited audience.

During this field-testing phase FATpick is absolutely free.

Play any song from our growing library. Import custom tabs.

Works with any guitar. No extra equipment or cables needed.

No time limits.

Copyright © 2018 - 2019 FATpick LLC.