Mr. Brightside

by

The Killers


from the album

Hot Fuss

Cover art for Hot Fuss by The Killers featuring the song Mr. Brightside

Guitar Tablature

Eb (Eb Ab Db Gb Bb Eb) Tuning
eb|-----------------0------------|-----------------0------------|               
Bb|--------------------17--------|--------------------17--------|               
Gb|---------19-------------19----|---------19-------------19----|               
Db|-----16------16-------------0-|-----16------16-------------0-|               
Ab|-17---------------------------|-16---------------------------|               
Eb|------------------------------|------------------------------|               

eb|-----------------0------------|-----------------0------------|               
Bb|--------------------17--------|--------------------17--------|               
Gb|---------19-------------19----|---------19-------------19----|               
Db|-----16------16-------------0-|-----16------16-------------0-|               
Ab|------------------------------|------------------------------|               
Eb|-15---------------------------|-15---------------------------|               

eb|-----------------0------------|-----------------0------------|               
Bb|--------------------17--------|--------------------17--------|               
Gb|---------19-------------19----|---------19-------------19----|               
Db|-----16------16-------------0-|-----16------16-------------0-|               
Ab|-17---------------------------|-16---------------------------|               
Eb|------------------------------|------------------------------|               

eb|-----------------0------------|-----------------0------------|               
Bb|--------------------17--------|--------------------17--------|               
Gb|---------19-------------19----|---------19-------------19----|               
Db|-----16------16-------------0-|-----16------16-------------0-|               
Ab|------------------------------|------------------------------|               
Eb|-15---------------------------|-15---------------------------|               

eb|-----------------0------------|-----------------0------------|               
Bb|--------------------17--------|--------------------17--------|               
Gb|---------19-------------19----|---------19-------------19----|               
Db|-----16------16-------------0-|-----16------16-------------0-|               
Ab|-17---------------------------|-16---------------------------|               
Eb|------------------------------|------------------------------|               

eb|-----------------0------------|-----------------0------------|               
Bb|--------------------17--------|--------------------17--------|               
Gb|---------19-------------19----|---------19-------------19----|               
Db|-----16------16-------------0-|-----16------16-------------0-|               
Ab|------------------------------|------------------------------|               
Eb|-15---------------------------|-15---------------------------|               

eb|-----------------0------------|-----------------0------------|               
Bb|--------------------17--------|--------------------17--------|               
Gb|---------19-------------19----|---------19-------------19----|               
Db|-----16------16-------------0-|-----16------16-------------0-|               
Ab|-17---------------------------|-16---------------------------|               
Eb|------------------------------|------------------------------|               

eb|-----------------0------------|-----------------0------------|               
Bb|--------------------17--------|--------------------17--------|               
Gb|---------19-------------19----|---------19-------------19----|               
Db|-----16------16-------------0-|-----16------16-------------0-|               
Ab|------------------------------|------------------------------|               
Eb|-15---------------------------|-15---------------------------|               

eb|-----------------0------------|-----------------0------------|               
Bb|--------------------17--------|--------------------17--------|               
Gb|---------19-------------19----|---------19-------------19----|               
Db|-----16------16-------------0-|-----16------16-------------0-|               
Ab|-17---------------------------|-16---------------------------|               
Eb|------------------------------|------------------------------|               

eb|-----------------0------------|-----------------0------------|               
Bb|--------------------17--------|--------------------17--------|               
Gb|---------19-------------19----|---------19-------------19----|               
Db|-----16------16-------------0-|-----16------16-------------0-|               
Ab|------------------------------|------------------------------|               
Eb|-15---------------------------|-15---------------------------|               

eb|-------------0--0-------|-------------0--0-------|-------------0--0-------|  
Bb|------------------------|------------------------|------------------------|  
Gb|-------7-----------7----|-------7-----------7----|-------7-----------7----|  
Db|----0-----0-----------0-|----0-----0-----------0-|----0-----0-----------0-|  
Ab|------------------------|------------------------|------------------------|  
Eb|-7----------------------|-7----------------------|-5----------------------|  

eb|-------------0--0-------|-------------0--0-------|-------------0--0-------|  
Bb|------------------------|------------------------|------------------------|  
Gb|-------7-----------7----|-------7-----------7----|-------7-----------7----|  
Db|----0-----0-----------0-|----0-----0-----------0-|----0-----0-----------0-|  
Ab|------------------------|------------------------|------------------------|  
Eb|-5----------------------|-3----------------------|-3----------------------|  

eb|-------------0--0-------|-------------0--0-------|-------------0--0-------|  
Bb|------------------------|------------------------|------------------------|  
Gb|-------7-----------7----|-------7-----------7----|-------7-----------7----|  
Db|----0-----0-----------0-|----0-----0-----------0-|----0-----0-----------0-|  
Ab|------------------------|------------------------|------------------------|  
Eb|-3----------------------|-3----------------------|-7----------------------|  

eb|-------------0--0-------|-------------0--0-------|-------------0--0-------|  
Bb|------------------------|------------------------|------------------------|  
Gb|-------7-----------7----|-------7-----------7----|-------7-----------7----|  
Db|----0-----0-----------0-|----0-----0-----------0-|----0-----0-----------0-|  
Ab|------------------------|------------------------|------------------------|  
Eb|-7----------------------|-5----------------------|-5----------------------|  

eb|-------------0--0-------|-------------0--0-------|-------------0--0-------|  
Bb|------------------------|------------------------|------------------------|  
Gb|-------7-----------7----|-------7-----------7----|-------7-----------7----|  
Db|----0-----0-----------0-|----0-----0-----------0-|----0-----0-----------0-|  
Ab|------------------------|------------------------|------------------------|  
Eb|-3----------------------|-3----------------------|-3----------------------|  

eb|-------------0--0-------|--------------------------------|                   
Bb|------------------------|--------------------------------|                   
Gb|-------7-----------7----|-11------11------11------11-----|                   
Db|----0-----0-----------0-|-----12------12------12------12-|                   
Ab|------------------------|--------------------------------|                   
Eb|-3----------------------|--------------------------------|                   

eb|--------------------------------|--------------------------------|           
Bb|--------------------------------|--------------------------------|           
Gb|-12------12------12------12-----|-14------14------14------14-----|           
Db|-----12------12------12------12-|-----12------12------12------12-|           
Ab|--------------------------------|--------------------------------|           
Eb|--------------------------------|--------------------------------|           

eb|------------------------|--------------------------------|                   
Bb|------------------------|--------------------------------|                   
Gb|-9-----7-----6-----7----|-11------11------11------11-----|                   
Db|----7-----7-----7-----7-|-----12------12------12------12-|                   
Ab|------------------------|--------------------------------|                   
Eb|------------------------|--------------------------------|                   

eb|--------------------------------|--------------------------------|           
Bb|--------------------------------|--------------------------------|           
Gb|-12------12------12------12-----|-14------14------14------14-----|           
Db|-----12------12------12------12-|-----12------12------12------12-|           
Ab|--------------------------------|--------------------------------|           
Eb|--------------------------------|--------------------------------|           

eb|------------------------|-5--------5--------5----|-7--------7--------7----|  
Bb|------------------------|----7--------7--------0-|----8--------8--------0-|  
Gb|-9-----7-----6-----7----|-------7--------7-------|-------7--------7-------|  
Db|----7-----7-----7-----7-|------------------------|------------------------|  
Ab|------------------------|------------------------|------------------------|  
Eb|------------------------|------------------------|------------------------|  

eb|-10--------10--------10----|------------------------|-5--------5--------5----|
Bb|-----7---------7---------0-|------------------------|----7--------7--------0-|
Gb|--------7---------7--------|-9-----7-----6-----7----|-------7--------7-------|
Db|---------------------------|----7-----7-----7-----7-|------------------------|
Ab|---------------------------|------------------------|------------------------|
Eb|---------------------------|------------------------|------------------------|

eb|-7--------7--------7----|-10--------10--------10----|------------------------|
Bb|----8--------8--------0-|-----7---------7---------0-|------------------------|
Gb|-------7--------7-------|--------7---------7--------|-9-----7-----6-----7----|
Db|------------------------|---------------------------|----7-----7-----7-----7-|
Ab|------------------------|---------------------------|------------------------|
Eb|------------------------|---------------------------|------------------------|

eb|--------------------------------|--------------------------------|           
Bb|--------------------------------|--------------------------------|           
Gb|-11------11------11------11-----|-12------12------12------12-----|           
Db|-----12------12------12------12-|-----12------12------12------12-|           
Ab|--------------------------------|--------------------------------|           
Eb|--------------------------------|--------------------------------|           

eb|--------------------------------|------------------------|                   
Bb|--------------------------------|------------------------|                   
Gb|-14------14------14------14-----|-9-----7-----6-----7----|                   
Db|-----12------12------12------12-|----7-----7-----7-----7-|                   
Ab|--------------------------------|------------------------|                   
Eb|--------------------------------|------------------------|                   

eb|--------------------------------|--------------------------------|           
Bb|--------------------------------|--------------------------------|           
Gb|-11------11------11------11-----|-12------12------12------12-----|           
Db|-----12------12------12------12-|-----12------12------12------12-|           
Ab|--------------------------------|--------------------------------|           
Eb|--------------------------------|--------------------------------|           

eb|--------------------------------|------------------------|                   
Bb|--------------------------------|------------------------|                   
Gb|-14------14------14------14-----|-9-----7-----6-----7----|                   
Db|-----12------12------12------12-|----7-----7-----7-----7-|                   
Ab|--------------------------------|------------------------|                   
Eb|--------------------------------|------------------------|                   

eb|-----------------0------------|-----------------0------------|               
Bb|--------------------17--------|--------------------17--------|               
Gb|---------19-------------19----|---------19-------------19----|               
Db|-----16------16-------------0-|-----16------16-------------0-|               
Ab|-17---------------------------|-16---------------------------|               
Eb|------------------------------|------------------------------|               

eb|-----------------0------------|-----------------0------------|               
Bb|--------------------17--------|--------------------17--------|               
Gb|---------19-------------19----|---------19-------------19----|               
Db|-----16------16-------------0-|-----16------16-------------0-|               
Ab|------------------------------|------------------------------|               
Eb|-15---------------------------|-15---------------------------|               

eb|-----------------0------------|-----------------0------------|               
Bb|--------------------17--------|--------------------17--------|               
Gb|---------19-------------19----|---------19-------------19----|               
Db|-----16------16-------------0-|-----16------16-------------0-|               
Ab|-17---------------------------|-16---------------------------|               
Eb|------------------------------|------------------------------|               

eb|-----------------0------------|-----------------0------------|               
Bb|--------------------17--------|--------------------17--------|               
Gb|---------19-------------19----|---------19-------------19----|               
Db|-----16------16-------------0-|-----16------16-------------0-|               
Ab|------------------------------|------------------------------|               
Eb|-15---------------------------|-15---------------------------|               

eb|-----------------0------------|-----------------0------------|               
Bb|--------------------17--------|--------------------17--------|               
Gb|---------19-------------19----|---------19-------------19----|               
Db|-----16------16-------------0-|-----16------16-------------0-|               
Ab|-17---------------------------|-16---------------------------|               
Eb|------------------------------|------------------------------|               

eb|-----------------0------------|-----------------0------------|               
Bb|--------------------17--------|--------------------17--------|               
Gb|---------19-------------19----|---------19-------------19----|               
Db|-----16------16-------------0-|-----16------16-------------0-|               
Ab|------------------------------|------------------------------|               
Eb|-15---------------------------|-15---------------------------|               

eb|-----------------0------------|-----------------0------------|               
Bb|--------------------17--------|--------------------17--------|               
Gb|---------19-------------19----|---------19-------------19----|               
Db|-----16------16-------------0-|-----16------16-------------0-|               
Ab|-17---------------------------|-16---------------------------|               
Eb|------------------------------|------------------------------|               

eb|-----------------0------------|-----------------0------------|               
Bb|--------------------17--------|--------------------17--------|               
Gb|---------19-------------19----|---------19-------------19----|               
Db|-----16------16-------------0-|-----16------16-------------0-|               
Ab|------------------------------|------------------------------|               
Eb|-15---------------------------|-15---------------------------|               

eb|-------------0--0-------|-------------0--0-------|-------------0--0-------|  
Bb|------------------------|------------------------|------------------------|  
Gb|-------7-----------7----|-------7-----------7----|-------7-----------7----|  
Db|----0-----0-----------0-|----0-----0-----------0-|----0-----0-----------0-|  
Ab|------------------------|------------------------|------------------------|  
Eb|-7----------------------|-7----------------------|-5----------------------|  

eb|-------------0--0-------|-------------0--0-------|-------------0--0-------|  
Bb|------------------------|------------------------|------------------------|  
Gb|-------7-----------7----|-------7-----------7----|-------7-----------7----|  
Db|----0-----0-----------0-|----0-----0-----------0-|----0-----0-----------0-|  
Ab|------------------------|------------------------|------------------------|  
Eb|-5----------------------|-3----------------------|-3----------------------|  

eb|-------------0--0-------|-------------0--0-------|-------------0--0-------|  
Bb|------------------------|------------------------|------------------------|  
Gb|-------7-----------7----|-------7-----------7----|-------7-----------7----|  
Db|----0-----0-----------0-|----0-----0-----------0-|----0-----0-----------0-|  
Ab|------------------------|------------------------|------------------------|  
Eb|-3----------------------|-3----------------------|-7----------------------|  

eb|-------------0--0-------|-------------0--0-------|-------------0--0-------|  
Bb|------------------------|------------------------|------------------------|  
Gb|-------7-----------7----|-------7-----------7----|-------7-----------7----|  
Db|----0-----0-----------0-|----0-----0-----------0-|----0-----0-----------0-|  
Ab|------------------------|------------------------|------------------------|  
Eb|-7----------------------|-5----------------------|-5----------------------|  

eb|-------------0--0-------|-------------0--0-------|-------------0--0-------|  
Bb|------------------------|------------------------|------------------------|  
Gb|-------7-----------7----|-------7-----------7----|-------7-----------7----|  
Db|----0-----0-----------0-|----0-----0-----------0-|----0-----0-----------0-|  
Ab|------------------------|------------------------|------------------------|  
Eb|-3----------------------|-3----------------------|-3----------------------|  

eb|-------------0--0-------|--------------------------------|                   
Bb|------------------------|--------------------------------|                   
Gb|-------7-----------7----|-11------11------11------11-----|                   
Db|----0-----0-----------0-|-----12------12------12------12-|                   
Ab|------------------------|--------------------------------|                   
Eb|-3----------------------|--------------------------------|                   

eb|--------------------------------|--------------------------------|           
Bb|--------------------------------|--------------------------------|           
Gb|-12------12------12------12-----|-14------14------14------14-----|           
Db|-----12------12------12------12-|-----12------12------12------12-|           
Ab|--------------------------------|--------------------------------|           
Eb|--------------------------------|--------------------------------|           

eb|------------------------|--------------------------------|                   
Bb|------------------------|--------------------------------|                   
Gb|-9-----7-----6-----7----|-11------11------11------11-----|                   
Db|----7-----7-----7-----7-|-----12------12------12------12-|                   
Ab|------------------------|--------------------------------|                   
Eb|------------------------|--------------------------------|                   

eb|--------------------------------|--------------------------------|           
Bb|--------------------------------|--------------------------------|           
Gb|-12------12------12------12-----|-14------14------14------14-----|           
Db|-----12------12------12------12-|-----12------12------12------12-|           
Ab|--------------------------------|--------------------------------|           
Eb|--------------------------------|--------------------------------|           

eb|------------------------|-5--------5--------5----|-7--------7--------7----|  
Bb|------------------------|----7--------7--------0-|----8--------8--------0-|  
Gb|-9-----7-----6-----7----|-------7--------7-------|-------7--------7-------|  
Db|----7-----7-----7-----7-|------------------------|------------------------|  
Ab|------------------------|------------------------|------------------------|  
Eb|------------------------|------------------------|------------------------|  

eb|-10--------10--------10----|------------------------|-5--------5--------5----|
Bb|-----7---------7---------0-|------------------------|----7--------7--------0-|
Gb|--------7---------7--------|-9-----7-----6-----7----|-------7--------7-------|
Db|---------------------------|----7-----7-----7-----7-|------------------------|
Ab|---------------------------|------------------------|------------------------|
Eb|---------------------------|------------------------|------------------------|

eb|-7--------7--------7----|-10--------10--------10----|------------------------|
Bb|----8--------8--------0-|-----7---------7---------0-|------------------------|
Gb|-------7--------7-------|--------7---------7--------|-9-----7-----6-----7----|
Db|------------------------|---------------------------|----7-----7-----7-----7-|
Ab|------------------------|---------------------------|------------------------|
Eb|------------------------|---------------------------|------------------------|

eb|--------------------------------|--------------------------------|           
Bb|--------------------------------|--------------------------------|           
Gb|-11------11------12------14-----|-16------14------12------11-----|           
Db|-----12------12------12------12-|-----12------12------12------12-|           
Ab|--------------------------------|--------------------------------|           
Eb|--------------------------------|--------------------------------|           

eb|--------------------------------|------------------------|                   
Bb|--------------------------------|------------------------|                   
Gb|-11------11------12------11-----|-9-----7-----6-----7----|                   
Db|-----12------12------12------12-|----7-----7-----7-----7-|                   
Ab|--------------------------------|------------------------|                   
Eb|--------------------------------|------------------------|                   

eb|--------------------------------|--------------------------------|           
Bb|--------------------------------|--------------------------------|           
Gb|-11------11------12------14-----|-16------14------12------11-----|           
Db|-----12------12------12------12-|-----12------12------12------12-|           
Ab|--------------------------------|--------------------------------|           
Eb|--------------------------------|--------------------------------|           

eb|--------------------------------|------------------------|                   
Bb|--------------------------------|------------------------|                   
Gb|-11------11------12------11-----|-9-----7-----6-----7----|                   
Db|-----12------12------12------12-|----7-----7-----7-----7-|                   
Ab|--------------------------------|------------------------|                   
Eb|--------------------------------|------------------------|                   

eb|--------------------------------|--------------------------------|           
Bb|--------------------------------|--------------------------------|           
Gb|-11------11------11------11-----|-12------12------12------12-----|           
Db|-----12------12------12------12-|-----12------12------12------12-|           
Ab|--------------------------------|--------------------------------|           
Eb|--------------------------------|--------------------------------|           

eb|--------------------------------|------------------------|                   
Bb|--------------------------------|------------------------|                   
Gb|-14------14------14------14-----|-9-----7-----6-----7----|                   
Db|-----12------12------12------12-|----7-----7-----7-----7-|                   
Ab|--------------------------------|------------------------|                   
Eb|--------------------------------|------------------------|                   

eb|--------------------------------|--------------------------------|           
Bb|--------------------------------|--------------------------------|           
Gb|-11------11------11------11-----|-12------12------12------12-----|           
Db|-----12------12------12------12-|-----12------12------12------12-|           
Ab|--------------------------------|--------------------------------|           
Eb|--------------------------------|--------------------------------|           

eb|--------------------------------|------------------------|                   
Bb|--------------------------------|------------------------|                   
Gb|-14------14------14------14-----|-9-----7-----6-----7----|                   
Db|-----12------12------12------12-|----7-----7-----7-----7-|                   
Ab|--------------------------------|------------------------|                   
Eb|--------------------------------|------------------------|                   

eb|--------------------------------|--------------------------------|           
Bb|--------------------------------|--------------------------------|           
Gb|-11------11------11------11-----|-12------12------12------12-----|           
Db|-----12------12------12------12-|-----12------12------12------12-|           
Ab|--------------------------------|--------------------------------|           
Eb|--------------------------------|--------------------------------|           

eb|--------------------------------|------------------------|                   
Bb|--------------------------------|------------------------|                   
Gb|-14------14------14------14-----|-9-----7-----6-----7----|                   
Db|-----12------12------12------12-|----7-----7-----7-----7-|                   
Ab|--------------------------------|------------------------|                   
Eb|--------------------------------|------------------------|                   

eb|--------------------------------|--------------------------------|           
Bb|--------------------------------|--------------------------------|           
Gb|-11------11------11------11-----|-12------12------12------12-----|           
Db|-----12------12------12------12-|-----12------12------12------12-|           
Ab|--------------------------------|--------------------------------|           
Eb|--------------------------------|--------------------------------|           

eb|-------------------------------|---------|---|---|---|---|                   
Bb|-------------------------------|---------|---|---|---|---|                   
Gb|-14------14------14------14----|-9--7--6-|---|---|---|---|                   
Db|-----12------12------12------0-|-7--7--7-|---|---|---|---|                   
Ab|-------------------------------|----0--0-|---|---|---|---|                   
Eb|-------------------------------|-5--5--5-|---|---|---|---|                   

There is a better way to learn guitar.

FATpick is the tab player that listens.

Choose a song from our library or import custom songs.

FATpick will render any guitar tab as a scrolling “piano-roll” that indicates which and when notes should be played.

Songs can be synchronized with original recordings or configurable backing-tracks.

Get real-time feedback on timing and accuracy as you play along with any electric or acoustic guitar.

Slow down to nail a particular passage, or speed up to improve your mastery.

Track your progress through personal records or compete for a position on our global leaderboards.

Try FATpick for Free

Download for Mac OSX Download for Windows Download for Android Download for iOS

Early Access

I'm interested in the


FATpick for MacOS and FATpick for Windows are available to download immediately.

Download for Mac OSX Download for Windows

Pre-release versions of FATpick for other platforms are currently available to a limited audience.

 

Pre-release versions of FATpick are available to a limited audience.

During this field-testing phase FATpick is absolutely free.

Play any song from our growing library. Import custom tabs.

Works with any guitar. No extra equipment or cables needed.

No time limits.

Copyright © 2018 - 2019 FATpick LLC.